Song name
# A B C D E F G H I J K L M N O P Q R S T U V W X Y Z

Biffy Clyro - Stingin Belle tab

Biffy Clyro - Stingin' Belle

Tuning: Drop C# - (C# G# C# F# A# D#)

I have not put in the exactly amount of Chords, nor the prescise Rhythms as 
they're fairly straight-forward,
plus if you can't work them out you shouldn't be playing BIFFY!!!

(Side-Note: I think there is a quick D at the end of the Second Verse before going 
into the Chorus. Listen to song to hear.)

Intro:
D|-----------------------------------------------------------------|
A|-----------------------------------------------------------------|
F|-----------------------------------------------------------------|
C|-3-3-3-3-3-3--0-0--3-3-3-3-3-3-3-3-3-3-3-3--0-0-0-0--------------|
G|-3-3-3-3-3-3--0-0--3-3-3-3-3-3-3-3-3-3-3-3--0-0-0-0--------------|
C|-3-3-3-3-3-3--0-0--3-3-3-3-3-3-3-3-3-3-3-3--0-0-0-0--------------|

D|-------------------------------------------------------------------------|
A|-------------------------------------------------------------------------|
F|-------------------------------------------------------------------------|
C|-3-3-3-3-3-3--0-0-0-0-0-0--3-3-3-3-3-3-3-3-3-3-3-3--0-0-0-0-0-0-0-0------|
G|-3-3-3-3-3-3--0-0-0-0-0-0--3-3-3-3-3-3-3-3-3-3-3-3--0-0-0-0-0-0-0-0------|
C|-3-3-3-3-3-3--0-0-0-0-0-0--3-3-3-3-3-3-3-3-3-3-3-3--0-0-0-0-0-0-0-0------|

D|---------------------------------------------------------------|
A|---------------------------------------------------------------|
F|---------------------------------------------------------------|
C|-3-3-3-3-3-3-3-3-3-3-3-3-3-3-3-3-3-3-3-3-3-3-3-3-3-3-3-3-3-3---|
G|-3-3-3-3-3-3-3-3-3-3-3-3-3-3-3-3-3-3-3-3-3-3-3-3-3-3-3-3-3-3---|
C|-3-3-3-3-3-3-3-3-3-3-3-3-3-3-3-3-3-3-3-3-3-3-3-3-3-3-3-3-3-3---|

D|---------------------------------------------------------------|
A|---------------------------------------------------------------|
F|---------------------------------------------------------------|
C|-15-15-15-15-15-15-15-15-15-15-15-15-15-15-15------------------|
G|-15-15-15-15-15-15-15-15-15-15-15-15-15-15-15------------------|
C|-15-15-15-15-15-15-15-15-15-15-15-15-15-15-15------------------|


Main Riff:
D|---------------------------------------------------------------|
A|---------------------------------------------------------------|
F|---------------------------------------------------------------| (x2)
C|-------------------0---------------------0---------------------|
G|-----9-0-7h9-0-------------9-0-7h9-0---------------------------|
C|-0-0-----------7h9-----0-0-----------7h9-----------------------|


Verse:
D|---------------------------------------------------------------|
A|-----3------3-------------------3------3-----------------------|
F|-----2------2--------0----------2------2--------0--------------|
C|----------0----0h2h4---0------0------0----0h2h4---0------------|
G|---0-----------------------------------------------------------|
C|-0------0-------------------2------2---------------------------|

D|---------------------------------------------------------------|
A|-----3-------3-------------------3-------3---------------------|
F|-----2-------2---------0---------2-------2---------------------|
C|---0-------2-----0h2h4---0-------------0----------------0------|
G|---------0---------------------0--------------7h9-0------------|
C|-5---------------------------0-------0--------------7h9--------|


Pre-Chorus:
D|---------------------------------------------------------------|
A|---------------------------------------------------------------|
F|---------------------------------------------------------------| (x2)
C|-------------------0---------------------0---------------------|
G|-----9-0-7h9-0-------------9-0-7h9-0---------------------------|
C|-0-0-----------7h9-----0-0-----------7h9-----------------------|

D|---------------------------------------------------------------|
A|---------------------------------------------------------------|
F|---------------------------------------------------------------| (x2)
C|-------------------0---------------------0---------------------|
G|-----9-0-7h9-0-------------9-0-7h9-0---------------------------|
C|-2-2-----------7h9-----2-2-----------7h9-----------------------|

D|---------------------------------------------------------------|
A|---------------------------------------------------------------|
F|---------------------------------------------------------------| (x2)
C|-------------------0---------------------0---------------------|
G|-----9-0-7h9-0-------------9-0-7h9-0---------------------------|
C|-5-5-----------7h9-----5-5-----------7h9-----------------------|

D|---------------------------------------------------------------|
A|---------------------------------------------------------------|
F|---------------------------------------------------------------| (x2)
C|-------------------0---------------------0---------------------|
G|-----9-0-7h9-0-------------9-0-7h9-0---------------------------|
C|-0-0-----------7h9-----0-0-----------7h9-----------------------|


Chorus:
D|--------------------------------------------------------------------|
A|------8--------3--------8--------3--------8-------------------------|
F|------7--------2--------7--------2--------7--------7--------5-------|
C|-5-5--5---0-0--0---5-5--5---0-0--0---5-5--5---9-9--9---7-7--7-------|
G|-5-5--5---0-0--0---5-5--5---0-0--0---5-5--5---9-9--9---7-7--7-------|
C|-5-5--5---0-0--0---5-5--5---0-0--0---5-5--5---9-9--9---7-7--7-------|

D|---------------------------------------------------------------|
A|---------------------------------------------------------------|
F|-7-7-7-7-7-7-7-7-7-7-7-7---------------------------------------| 
C|-6-6-6-6-6-6-6-6-6-6-6-6---------------------------------------|
G|-5-5-5-5-5-5-5-5-5-5-5-5---------------------------------------|
C|-0-0-0-0-0-0-0-0-0-0-0-0---------------------------------------|


Verse 2:
D|---------------------------------------------------------------|
A|---------------------------------------------------------------|
F|---------------------------------------------------------------| 
C|---------------0-----------------------------------------------| (x4)
G|-----7h9-0-----------------------------------------------------|
C|-----------7h9-------------------------------------------------|


Chorus:
D|--------------------------------------------------------------------|
A|------8--------3--------8--------3--------8-----------------10------|
F|------7--------2--------7--------2--------7--------7--------9-------|
C|-5-5--5---0-0--0---5-5--5---0-0--0---5-5--5---9-9--9---7-7--7-------|
G|-5-5--5---0-0--0---5-5--5---0-0--0---5-5--5---9-9--9---7-7--7-------|
C|-5-5--5---0-0--0---5-5--5---0-0--0---5-5--5---9-9--9---7-7--7-------|

D|---------------------------------------------------------------|
A|---------------------------------------------------------------|
F|-7-7-7-7-7-7-7-7-7-7-7-7---------------------------------------| As needed
C|-6-6-6-6-6-6-6-6-6-6-6-6---------------------------------------|
G|-5-5-5-5-5-5-5-5-5-5-5-5---------------------------------------|
C|-0-0-0-0-0-0-0-0-0-0-0-0---------------------------------------|


Middle Eight:
D|---------------------------------------------------------------|
A|---------------------------------------------------------------|
F|--11---11-------------------------12---12----------------------|
C|--0----0--------------------------0----0-----------------------| (x2)
G|--12---12-------------------------14---14----------------------|
C|--0----0--------------------------0----0-----------------------|

D|---------------------------------------------------------------|
A|---------------------------------------------------------------|
F|--11--11--11--9---7-------------12--12--12--11--9--------------|
C|--0---0---0---0---0----x2-------0---0---0---0---0--------------| (x2)
G|--12--12--12--10--9-------------14--14--14--12--10-------------|
C|--0---0---0---0---0-------------0---0---0---0---0--------------|

D|------------------------------------------------------------------|
A|------------------------------------------------------------------|
F|--11--11--11--9---7-------------12--12--12--12--14--14--14--14----|
C|--0---0---0---0---0----x2-------0---0---0---0---0---0---0---0-----| 
G|--12--12--12--10--9-------------14--14--14--14--16--16--16--16----|
C|--0---0---0---0---0-------------0---0---0---0---0---0---0---0-----|

D|---------------------------------------------------------------|
A|-7-7-7-7-7-7-7-7-7-7-7-7--8-8-8-8-8-8-8-8-8-8-8-8--------------|
F|-6-6-6-6-6-6-6-6-6-6-6-6--7-7-7-7-7-7-7-7-7-7-7-7--------------|
C|-4-4-4-4-4-4-4-4-4-4-4-4--5-5-5-5-5-5-5-5-5-5-5-5--------------| (x2)
G|-4-4-4-4-4-4-4-4-4-4-4-4--5-5-5-5-5-5-5-5-5-5-5-5--------------|
C|-4-4-4-4-4-4-4-4-4-4-4-4--5-5-5-5-5-5-5-5-5-5-5-5--------------|

Repeat whole Middle Eight twice minus the first quiet wee bit (more rapidly/more 
aggressively the second time round)


Main Riff/Outro:
D|---------------------------------------------------------------|
A|---------------------------------------------------------------|
F|---------------------------------------------------------------| (x2)
C|-------------------0---------------------0---------------------|
G|-----9-0-7h9-0-------------9-0-7h9-0---------------------------|
C|-0-0-----------7h9-----0-0-----------7h9-----------------------|




NOTE: THIS IS TRANSCRIBED FROM THE TOTAL GUITAR VERSION, NO ALTERATIONS WERE MADE.


HOWEVER, HERE ARE SOME CHANGES I HAVE MADE FOR MYSELF AS I BELIEVE THEY ARE CLOSER 
TO WHAT SIMON PLAYS:


Main Riff:
D|-------------------------------------------------------------------|
A|-------------------------------------------------------------------|
F|-------------------------------------------------------------------| 
C|---------------------0-----------------------0---------------------|
G|-0-0-7/9-0-7h9-0---------0-0-7/9-0-7h9-0---------------------------|
C|-0-0-------------7h9-----0-0-------------7h9-----------------------|

(THIS GIVES THE RIFF A LITTLE MORE BALLS...)


Chorus:
D|--------------------------------------------------------------------|
A|------3--------3--------3--------3--------3-----------------5-------|
F|---------------2-----------------2-----------------7----------------|
C|-5-5--5---0-0--0---5-5--5---0-0--0---5-5--5---9-9--9---7-7--7-------|
G|-5-5--5---0-0--0---5-5--5---0-0--0---5-5--5---9-9--9---7-7--7-------|
C|-5-5--5---0-0--0---5-5--5---0-0--0---5-5--5---9-9--9---7-7--7-------|

D|---------------------------------------------------------------|
A|---------------------------------------------------------------|
F|-13-13-13-13-13-13-13-13---------------------------------------| 
C|-0--0--0--0--0--0--0--0----------------------------------------|
G|-0--0--0--0--0--0--0--0----------------------------------------|
C|-0--0--0--0--0--0--0--0----------------------------------------|

(THOUGH I CAN IN NO WAY TELL WHETHER SIMON PLAYS LIKE THIS, I DO KNOW THESE ARE 
CHORDS HE LIKES TO USE WHEN IN DROP D.
IT IS UNCERTAIN WHETHER HE WOULD USE THEM WHEN PLAYING IN THIS TUNING)
Tap to rate this tab
 
# A B C D E F G H I J K L M N O P Q R S T U V W X Y Z