Song name
# A B C D E F G H I J K L M N O P Q R S T U V W X Y Z

Biffy Clyro - God And Satan tab

I decided to try to tab this song as there is only 1 half descent version to be found
online and after all, it is a fantasic song. This is what I have come up with after hours
of listening and trying out different chord positionings etc. Hope you all enjoy it and 
any feedback will be greatly appreciated. Many thanks and have fun playing along!! =)

INTRO:
e|-----------------------------------------------------------------------|
B|-----------------------------------------0------5--5---5------5--0---0-|
G|------4--0---0------0--0---0------4--0---0------0--0---0------0--0---0-|
D|-0----0--0---0------2--0---0-0----0--0-X---X--X------X---X--X----------|
A|-X----X----X---2--2------X---X----X----2---3--3------3---3--3------X---|
E|-3--3------2---0--0------2---3--3----------------------------------2---|

e|---------------------------------------------|
B|---------------------------------------------|
G|------4--0---0-2/4--4/2-2/4-4-------4--4---0-|
D|-0----0--0---0-------------------------------|
A|-X----X----X---------------------------------|
E|-3--3------2------------------0--0-------0---|

VERSE (X2):
e|-----------------------------------------------------------------------|
B|------------------------------------------------1--1---1------1--1---0-|
G|------0--0---0------0--0---0------0--0---0------0--0---0------0--0---0-|
D|-0----0--0---0------2--2---0-0----0--0---0-2--2------2---2--2------2---|
A|-X----X----X---2--2------X---X----X----X---3--3------3---3--3------3---|
E|-3--3------3---0--0------2---3--3------3-------------------------------|

e|-------------------------------------------|
B|-------------------------------------------|
G|------0--0---0------0--0---0------0--0---0-|
D|-0----0--0---0------2--2---2------2--2---0-|
A|-X----X----X---2--2------X---2--2------X---|
E|-3--3------3---0--0------2---0--0------2---|

PRE-CHORUS 1:
e|-0--0--3--3--------0------2-------3------3-|
B|-1--1--0--0--3-3------3------3-------3-----|
G|-0--0--0--0--2---2------2------2-------2---|
D|-2--2--0--0--0-----------------------------|
A|-3--3--2--2--------------------------------|
E|-X--X--3--3--------------------------------|

CHORUS 1 (X2, EACH CHORD PLAYED FOR 4 BEATS):
e|-0-0-0-|-3-|
B|-1-1-0-|-0-|
G|-0-0-0-|-0-| <-- 1ST TIME END ON G
D|-2-2-2-|-0-|
A|-3-3-2-|-2-|
E|-X-X-0-|-3-|

e|------2--2---3-|
B|-3----3--3---3-|
G|-2--2------2---| <-- 2ND TIME END BY PICKING THIS RIFF
D|-0--0------0---|
A|---------------|
E|---------------|

POST-CHORUS:
e|---------------------------------------------------------|
B|---------------------------------------------------------|
G|------0--0---0------0--0---0------0--0---0------0--0---0-|
D|-0----0--0---0------2--2---0-0----0--0---0------2--2---0-|
A|-X----X----X---2--2------X---X----X----X---2--2------X---|
E|-3--3------2---0--0------2---3--3------2---0--0------2---|

(REPEAT VERSE X2)

PRE-CHORUS 2:
e|-0--0--3--3--------0------2-------0------3-|
B|-1--1--0--0--3--------3------3-------3---3-|
G|-0--0--0--0--2----------2------2-------2---|
D|-2--2--0--0--0-----------------------------|
A|-3--3--2--2--------------------------------|
E|-X--X--3--3--------------------------------|

(REPEAT CHORUS X4)

BRIDGE (x4):
e|--------------------------------------------------|
B|------0--0---0------0-1--1-1--1-1-1-5--5-5-7--7-7-|
G|------0--0---0------0-2--2-2--2-2-2-0--0-0-0--0-0-|
D|-2--2-2--2-2-0-0--0-0-2--2-2--0-X-0-X--X-x-X--X-x-|
A|-2--2------X---X--X-X-0--0------2---3--3---5--5---|
E|-0--0------2---3--3-------------------------------|

OUTRO:
e|-------------------------------------------0-|
B|-------------------------------------------1-|
G|------0--0---0------0--0---0------0--0---0-2-|
D|-0----0--0---0------2--2---0-0----0--0---0-0-|
A|-X----X----X---2--2------X---X----X----X---3-|
E|-3--3------2---0--0------2---3--3------2---X-|
Tap to rate this tab
# A B C D E F G H I J K L M N O P Q R S T U V W X Y Z