Song name
# A B C D E F G H I J K L M N O P Q R S T U V W X Y Z

Biffy Clyro - Victory Over The Sun tab

-----------------------------------------------------------------------
                       VICTORY OVER THE SUN - Biffy Clyro
-----------------------------------------------------------------------
Tabbed by: merkinball15

I noticed that there wasn't a tab that sounded entirely right to me up yet, so 
here's my go at it.

Tuning: Drop C#

Intro
D#|----------0h2-------0h2---2------------------------------------------------| x4
A#|------0h3-------0h3-------3------------------------------------------------|
F#|----4---------4---------0-0------------------------------------------------|
C#|---------------------------------------------------------------------------|
G#|---------------------------------------------------------------------------|
C#|---------------------------------------------------------------------------|

Verse:
D#|----------0h2-------0h2-----0-2--------------------------------------------| x4
A#|------0h3-------0h3-------3------------------------------------------------|
F#|----4---------4---------0--------------------------------------------------|
C#|---------------------------------------------------------------------------|
G#|---------------------------------------------------------------------------|
C#|---------------------------------------------------------------------------|

Break:
D#|----------0h2-------0h2-------0-------0h2-------0h2------------------------| x2
A#|------0h3-------0h3-------0-2-----0h3-------0h3-------0-2-0----------------|
F#|----4---------4---------2-------0---------0--------------------------------|
C#|----------------------------------------------------2----------------------|
G#|---------------------------------------------------------------------------|
C#|---------------------------------------------------------------------------|

D#|----------0h2-------0h2---2------------------------------------------------| x2
A#|------0h3-------0h3-------3------------------------------------------------|
F#|----4---------4---------0-0------------------------------------------------|
C#|---------------------------------------------------------------------------|
G#|---------------------------------------------------------------------------|
C#|---------------------------------------------------------------------------|

Verse:
D#|----------0h2-------0h2-----0-2--------------------------------------------| x4
A#|------0h3-------0h3-------3------------------------------------------------|
F#|----4---------4---------0--------------------------------------------------|
C#|---------------------------------------------------------------------------|
G#|---------------------------------------------------------------------------|
C#|---------------------------------------------------------------------------|

Break:
D#|----------0h2-------0h2-------0-------0h2-------0h2------------------------| x2
A#|------0h3-------0h3-------0-2-----0h3-------0h3-------0-2-0----------------|
F#|----4---------4---------2-------0---------0--------------------------------|
C#|----------------------------------------------------2----------------------|
G#|---------------------------------------------------------------------------|
C#|---------------------------------------------------------------------------|

Pre-Chorus:
D#|---------------------------------------------------------------------------| x4
A#|---------------------------------------------------------------------------|
F#|-------7-/9-11-----7-/9-11-12----------------------------------------------|
C#|----/9----------/9---------------------------------------------------------|
G#|---------------------------------------------------------------------------|
C#|---------------------------------------------------------------------------|

D#|----7~---777\--------7~---7~-----------------------------------------------|
A#|----7~---777\--------7~-----7~---------------------------------------------|
F#|----7~---777\--------7~----------------------------------------------------|
C#|----9~---999\--------9~-------9~-------------------------------------------|
G#|---------------------------------------------------------------------------|
C#|---------------------------------------------------------------------------|

D#|---------------------------------------------------------------------------|
A#|---------------------------------------------------------------------------|
F#|-------7-/9-11-----7-/9-11-----7-/9-11-----7-/9-11-12----------------------|
C#|----/9----------/9----------/9----------/9---------------------------------|
G#|---------------------------------------------------------------------------|
C#|---------------------------------------------------------------------------|

D#|------------------------------------------7-7-7-7-7-7-7-7-7----------------|
A#|------------------------------------------7-7-7-7-7-7-7-7-7----------------|
F#|-------7-/9-11-----7-/9-11-----7-/9-11----7-7-7-7-7-7-7-7-7----------------|
C#|----/9----------/9----------/9------------9-9-9-9-9-9-9-9-9----------------|
G#|---------------------------------------------------------------------------|
C#|------------------------------------------gradually bend-this-chord--------|

Chorus:
D#|---------------------------------------------------------------------------|
A#|---------------------------------------------------------------------------|
F#|---------------------------------------------------------------------------|
C#|----9--9-12-11-9--12121212--2-2--2-2-2-2--5555-----------------------------|
G#|----9--9-12-11-9--12121212--2-2--2-2-2-2--5555-----------------------------|
C#|----9--9-12-11-9--12121212--2-2--2-2-2-2--5555-----------------------------|

D#|---------------------------------------------------------------------------| play this
A#|---------------------------------------------------------------------------| whole section
F#|---------------------------------------------------------------------------| twice
C#|----9--9-12-11-9--7777--2-2--2-2-2-2--5555---------------------------------|
G#|----9--9-12-11-9--7777--2-2--2-2-2-2--5555---------------------------------|
C#|----9--9-12-11-9--7777--2-2--2-2-2-2--5555---------------------------------|

Pre-Chorus:
D#|---------------------------------------------------------------------------| 
A#|---------------------------------------------------------------------------|
F#|-------7-/9-11-----7-/9-11-12----------------------------------------------|
C#|----/9----------/9---------------------------------------------------------|
G#|---------------------------------------------------------------------------|
C#|---------------------------------------------------------------------------|

D#|---------------------------------------------------------------------------| x2
A#|---------------------------------------------------------------------------|
F#|-------7-/9-11-----7-/9-11-----7-/9-11-----7-/9-11-12----------------------|
C#|----/9----------/9----------/9----------/9---------------------------------|
G#|---------------------------------------------------------------------------|
C#|---------------------------------------------------------------------------|

D#|------------------------------------------7-7-7-7-7-7-7-7-7----------------|
A#|------------------------------------------7-7-7-7-7-7-7-7-7----------------|
F#|-------7-/9-11-----7-/9-11-----7-/9-11----7-7-7-7-7-7-7-7-7----------------|
C#|----/9----------/9----------/9------------9-9-9-9-9-9-9-9-9----------------|
G#|---------------------------------------------------------------------------|
C#|------------------------------------------gradually bend-this-chord--------|

Chorus:
D#|---------------------------------------------------------------------------|
A#|---------------------------------------------------------------------------|
F#|---------------------------------------------------------------------------|
C#|----9--9-12-11-9--12121212--2-2--2-2-2-2--5555-----------------------------|
G#|----9--9-12-11-9--12121212--2-2--2-2-2-2--5555-----------------------------|
C#|----9--9-12-11-9--12121212--2-2--2-2-2-2--5555-----------------------------|

D#|---------------------------------------------------------------------------| play this
A#|---------------------------------------------------------------------------| whole section
F#|---------------------------------------------------------------------------| twice
C#|----9--9-12-11-9--7777--2-2--2-2-2-2--5555---------------------------------|
G#|----9--9-12-11-9--7777--2-2--2-2-2-2--5555---------------------------------|
C#|----9--9-12-11-9--7777--2-2--2-2-2-2--5555---------------------------------|

Outro: (similar to chorus)
D#|---------------------------------------------------------------------------|
A#|---------------------------------------------------------------------------|
F#|---------------------------------------------------------------------------|
C#|----9--9-12-11-9--12121212--2-2--2-5-4-2--5555-----------------------------|
G#|----9--9-12-11-9--12121212--2-2--2-5-4-2--5555-----------------------------|
C#|----9--9-12-11-9--12121212--2-2--2-5-4-2--5555-----------------------------|

D#|---------------------------------------------------------------------------| 
A#|---------------------------------------------------------------------------| 
F#|---------------------------------------------------------------------------| 
C#|----9--9-12-11-9--7777--2-2--2-5-4-2--5555---------------------------------|
G#|----9--9-12-11-9--7777--2-2--2-5-4-2--5555---------------------------------|
C#|----9--9-12-11-9--7777--2-2--2-5-4-2--5555---------------------------------|

D#|---------------------------------------------------------------------------|
A#|---------------------------------------------------------------------------|
F#|---------------------------------------------------------------------------|
C#|----9--9-12-11-9--12121212--2-2--2-5-4-2--5555-----------------------------|
G#|----9--9-12-11-9--12121212--2-2--2-5-4-2--5555-----------------------------|
C#|----9--9-12-11-9--12121212--2-2--2-5-4-2--5555-----------------------------|

D#|---------------------------------------------------------------------------| 
A#|---------------------------------------------------------------------------|
F#|---------------------------------------------------------------------------|
C#|---------------------------------------------------------------------------|
G#|----9--9-9-9--9999--7-7--7-7-7-7--5brb~~~~---------------------------------|
C#|---------------------------------------------------------------------------|

D#|----------0h2-------0h2---2----------0h2-------0h2---3---------------------| 
A#|------0h3-------0h3-------3------0h3-------0h3-------3---------------------|
F#|----4---------4---------0-0----4---------4---------0-0---------------------|
C#|---------------------------------------------------------------------------|
G#|---------------------------------------------------------------------------|
C#|---------------------------------------------------------------------------|

Enjoy!

************************************

| /   slide up
| \   slide down
| h   hammer-on
| p   pull-off
| ~   vibrato
| +   harmonic
| x   Mute note
| b   Bend
| pb  Pre-bend
| br  Bend release
| pbr Pre-bend release
| brb Bend release bend

************************************
Tap to rate this tab
 
# A B C D E F G H I J K L M N O P Q R S T U V W X Y Z