Song name
# A B C D E F G H I J K L M N O P Q R S T U V W X Y Z

Biffy Clyro - Accident Without Emergency tab

Had to try tabbing this song, any feedback welcome. Should be mostly right.

Tuning: Drop C (CGCFAD)

Intro:

D|--0-0-|-0-0-0-|-0-0-0-0-|-0-0--|
A|--3-2-|-3-2-0-|-3-2-0-2-|-3-0--|
F|--2-2-|-2-2-2-|-2-2-2-2-|-2-1--|
C|--2-2-|-2-2-2-|-4-4-4-4-|-0-2--|
G|--0-0-|-0-0-0-|-0-0-0-0-|-0-2--|
C|--x-x-|-x-x-x-|-x-x-x-x-|-0-x--|



Verse:

D|---------------5---------------| 
A|--------2h3-/5---5\3-2---------| 
F|-------------------------------|  
C|-------------------------------|   
G|-----0-------------------------|          
C|-(2)---------------------------|    



"Girl I should have told you":

D|----4----5----(x)--------------| 
A|----5----x----(x)--------------| 
F|----6----7----(x)--------------| 
C|----6----7----(x)--------------| (add for pre chorus)
G|----4----5----(x)--------------| 
C|----x----x----(x)--------------|     


Chorus: 

Part 1: 
Note: Same as intro. Listen to song for timings/strum pattern.


D|--0-0-|-0-0-0-|-0-0-0-0-|-0-0--|
A|--3-2-|-3-2-0-|-3-2-0-2-|-3-0--|
F|--2-2-|-2-2-2-|-2-2-2-2-|-2-1--|
C|--2-2-|-2-2-2-|-4-4-4-4-|-0-2--|
G|--0-0-|-0-0-0-|-0-0-0-0-|-0-2--|
C|--x-x-|-x-x-x-|-x-x-x-x-|-0-x--|


2nd part: 
Note: Just before "If this is an accident, then where's the hurt"

D|----x--------------------------|
A|----x------10-----9/10---------|
F|----9--9------9----------------| x2
C|----7----7------7--------------|
G|----7--------------------------|
C|----7--------------------------|

then

D|----x-----x--------------------| 
A|----x-----3--------------------| 
F|----7-----2--------------------| 
C|----5-----0--------------------| 
G|----5-----0--------------------| 
C|----5-----0--------------------| 

and repeat.

There are some variations in the second chorus, but this is mainly mixing up the 
two chorus parts, have a listen and you should be fine.

Key (as used)
h - Hammer on
/ - Slide up
\ - Slide down
x - Mute   
Tap to rate this tab
# A B C D E F G H I J K L M N O P Q R S T U V W X Y Z