Song name
# A B C D E F G H I J K L M N O P Q R S T U V W X Y Z

Biffy Clyro - Get Fucked Stud chords

Highlighted       Show chord diagrams
The Ds and Bms sound very similar, just play whatever sounds right to you.

Intro:
                    Bm                       Bm
E -------0---------------------------0-------------|
B -0h2h3---3p2-----------------0h2h3---3p2---------|
G -------------------------------------------------|
D ------------------4-4-4-4------------------4-4-4-|
A ------------------2-2-2-2------------------2-2-2-|
E -------------------------------------------------|

Riff
E -------------------------------|
B ------------10-----------------|
G --------11------11-------------| (X amount of times)
D -----9-------------------------|
A --9----------------------------|
E -------------------------------|

E -------------9-----------------|
B ----------------10-------------|
G --------11----------11---------| (X an amount of times)
D -----9-------------------------|
A --9----------------------------|
E -------------------------------|


Bm                    A
Oh my distorted smile will tighten its grip
Bm                     A
Now somebody is asking when you will disappear
Bm or D             G              Bm    A
You have to believe yourself to be happy now
Bm or D             G              Bm    A
You can't reply on someone else to be happy

D          G         Bm      G
Get fucked stud it's time to kill
D                G   Bm             G
Only you see the sunset on amphetamines

[Riff]

Bm
All hands on the courtesy cunt
A                               Bm
Get fucked stud I know you will burn in hell
                         A
For pretending to be the god of all men I demand of you
G
Pretend to burn in hell to be
Bm                  A
The god of all well follow me
G
You're fucking right. I'm all at sea
Bm                   A
My teeth are made of baby hair

G              A       Bm           D      G
The skyline is burning red so we'll all go down
G         A       Bm               A                     G
Follow my head to survive cause it won't take us long to come round

Interlude: (x2)

E ---------------12--------------|
B --12--14--15-------15--14------|
G -------------------------------|
D -------------------------------| (x4)
A -------------------------------|
D -------------------------------|

E ---------------12--14--15--17--15--14--12-----------|
B --12--14--15---------------------------------15--14-|
G ----------------------------------------------------|
D ----------------------------------------------------|
A ----------------------------------------------------|
D ----------------------------------------------------|

D          G         Bm      G
Get fucked stud it's time to kill
D                G   Bm             G
Only you see the sunset on amphetamines

Repeat Intro
Tap to rate this tab
# A B C D E F G H I J K L M N O P Q R S T U V W X Y Z