Song name
# A B C D E F G H I J K L M N O P Q R S T U V W X Y Z

Biffy Clyro - Different People tab

-------------------------------------------------------------------------------
                        Different People - Biffy Clyro
-------------------------------------------------------------------------------

Tabbed by: maxl

Tuning:
-----------
* I saw tabs with dropped C Tuning (C G C F A D), but thats just not right. 
* I watched Simon Neil play live and you can also clearly see this on some Youtube Vids.
* So the right tuning is: 
* D Tuning: Tune down 1 step (D G C F A D)

Style:
----------
* I just tabbed the initial appearance of the chords/notes and tried to show you, 
where they begin within the lyrics.
* You have to figure out the timing and the number of strums by yourself, but i 
think, its pretty easy from here.
* 
* There are many hammer-ons and pull-offs in the parts, which are only played on 
the high A and D string.
* But I don't like to tab it that way, because it gets so much more difficult to read.
* You will find it out, I guess. I will do one for you to make things clear.
* 
* D|------------------|-------|-----------------|-------|
* A|--9-0-12-0-7-9-0--|--5-7--|--4-0-5-0-7-0-0--|--2-4--|
* F|------------------|-------|-----------------|-------|
* C|------------------|-------|-----------------|-------|
* G|------------------|-------|-----------------|-------|
* D|------------------|-------|-----------------|-------|

  D|------------------|-------|-----------------|-------|
  A|--9p0-12p0-7h9p0--|--5h7--|--4p0-5p0-7p0-0--|--2h4--|
  F|------------------|-------|-----------------|-------|
  C|------------------|-------|-----------------|-------|
  G|------------------|-------|-----------------|-------|
  D|------------------|-------|-----------------|-------|

* 

Accuracy:
----------
* I'm very certain about this tab, otherwise I wouldn't put it online.
* The only thing, where I'm not sure, is a part within the distorted version of the chorus.
* You can hear some notes, which I can't figure out.
* They played it live with 2 guitars, maybe thats why. I marked the section in the tab.

* Thx and please rate!

---------------------------------------------------------------------------
---------------------------------------------------------------------------


Intro: Clean

        Baby when you hold me           I can feel so wrong
D|--0--------------------------0----0--------------------------0--0----------|
A|--0--------------------------0----0--------------------------0----0---0----|
F|--1--------------------------8----9--------------------------8------8------|
C|--2--------------------------9----11-------------------------9-------------|
G|--2--------------------------9----11-------------------------9-------------|
D|--0--------------------------7-------------------------------7-------------|

       You're trying to console me                      Your chance has long gone
D|--0--------------------------------0--0--------0-0--0---------------------------0-----|
A|--0--------------------------------0----0---0--0-0--0---------------------------0-----|
F|--1--------------------------------8------8---------9---------------------------8-----|
C|--2--------------------------------9----------------11--------------------------9-----|
G|--2--------------------------------9----------------11--------------------------9-----|
D|--0--------------------------------7--------------------------------------------7-----|

   So baby won't you take my hand?     So we can do what the others can
D|-------------------0-------0------0------------------------0---------------|
A|-------------------0-------0------0------------------------0---------------|
F|-------------------4-------6------8------------------------9---------------|
C|-------------------6-------7------9------------------------11--------------|
G|-------------------6-------7------9------------------------11--------------|
D|---------------------------------------------------------------------------|

   We are alive tonight, we are alive tonight
D|--------0-------0-------------0-------0--------|
A|--------0-------0-------------0-------0--------|
F|--------4-------6-------------8-------9--------|
C|--------6-------7-------------9-------11-------|
G|--------6-------7-------------9-------11-------|
D|-----------------------------------------------|

      I am going home   forever and ever more   No I was never born     
D|--0-----------------0-----------------------0---------------------0---|
A|--0-----------------0-----------------------0---------------------0---|
F|--9-----------------7-----------------------6---------------------4---|
C|--9-----------------7-----------------------6---------------------4---|
G|--7-----------------5-----------------------4---------------------2---|
D|----------------------------------------------------------------------|

   and there's no such thing as home
D|-------------0-------0-------------0-----0-------0-------0-------|
A|-------------0-------0-------------0-------0-------0-------0-----|
F|-------------2-------4-------------5---------6-------6-------6---|
C|-------------4-------6-------------7-----------------------------|
G|-------------4-------6-------------7-----------------------------|
D|-----------------------------------------------------------------|

   We used to stand so strong                       That's why the others have gone
D|----0-------0--------0-------0------0------0---------------------------------------|
A|----0-------0--------0---------0------0------0-------------------------------------|
F|----4-------6--------8-----------8------8------8-----------------------------------|
C|----6-------7--------9-------------------------------------------------------------|
G|----6-------7--------9-------------------------------------------------------------|
D|-----------------------------------------------------------------------------------|


Get your distortion on here:

    [4x]                       [4x]
D|------------------|-------|-----------------|-------|
A|--9-0-12-0-7-9-0--|--5-7--|--4-0-5-0-7-0-0--|--2-4--|
F|------------------|-------|-----------------|-------|
C|------------------|-------|-----------------|-------|
G|------------------|-------|-----------------|-------|
D|------------------|-------|-----------------|-------|

    [4x]                      [4x]
D|------------------|-------|-----------------|---------|
A|---5-0-7-0-9-0-0--|--4-5--|--4-0-5-0-7-0-0--|--9-9-9--|
F|------------------|-------|-----------------|---------|
C|------------------|-------|-----------------|---------|
G|------------------|-------|-----------------|---------|
D|------------------|-------|-----------------|---------|


   Different person, different argument         In my shadow, no more compliments               
D|------------------------------------------------------------------------------------------------|
A|---------------------------------------9-10-7------------------------------------9-10-9---------|
F|------------------------------------------------------------------------------------------------|
C|------------------------------------------------------------------------------------------------|
G|------------------------------------------------------------------------------------------------|
D|------------------------------------------------------------------------------------------------|

   One more person breaking the rules again         I'm still waiting for someone else to join in
D|------------------------------------------------------------------------------------------------|
A|------------------------------------------9-10-12-----------------------------------------------|
F|------------------------------------------------------------------------------------------------|
C|------------------------------------------------------------------------------------------------|
G|------------------------------------------------------------------------------------------------|
D|------------------------------------------------------------------------------------------------|


                                Stand where the others stand
D|----------4-0-0-----------------------4-0-0--------------------|
A|--4-0-5-0-------4-0-5-0-7-0-5-4-0-5-0-------9-0-0-0-7-0-9-0-0--|
F|---------------------------------------------------------------|
C|---------------------------------------------------------------|
G|---------------------------------------------------------------|
D|---------------------------------------------------------------|

                                We're alive tonight
D|----------4-0-0-----------------------4-0-0--------------------|
A|--4-0-5-0-------4-0-5-0-7-0-5-4-0-5-0-------9-0-0-0-7-0-9-0-0--|
F|---------------------------------------------------------------|
C|---------------------------------------------------------------|
G|---------------------------------------------------------------|
D|---------------------------------------------------------------|

                                    Land where the others land
D|------------16-0-------------------------------16-0--------------------------|
A|--16-0-17-0------0-16-0-17-0-19-0-17-16-0-17-0------0-16-0-17-0-19-0-21-0-0--|
F|-----------------------------------------------------------------------------|
C|-----------------------------------------------------------------------------|
G|-----------------------------------------------------------------------------|
D|-----------------------------------------------------------------------------|

                                    We're alive tonight
D|------------16-0-------------------------------16-0--------------------------|
A|--16-0-17-0------0-16-0-17-0-19-0-17-16-0-17-0------0-21-0-0-0-19-0-21\------|
F|-----------------------------------------------------------------------------|
C|-----------------------------------------------------------------------------|
G|-----------------------------------------------------------------------------|
D|-----------------------------------------------------------------------------|


Chorus:

      I am going home   forever and ever more   No I was never born
D|--0-----------------0-----------------------0---------------------0--|
A|--0-----------------0-----------------------0---------------------0--|
F|--1-----------------7-----------------------6---------------------4--|
C|--2-----------------7-----------------------6---------------------4--|
G|--2-----------------5-----------------------4---------------------2--|
D|--0------------------------------------------------------------------|

   and there's no such thing as home
D|-------------0-------0-------------0----------------------|
A|-------------0-------0-------------0----------------------|
F|-------------2-------4-------------5----------------------|
C|-------------4-------6-------------7----------------------|
G|-------------4-------6-------------7----------------------|
D|----------------------------------------------------------|
                                       |--missing notes--|
                                                                
   We used to stand so strong That's why the others have gone
D|----0-------0--------0---------------------------------------|
A|----0-------0--------0---------------------------------------|
F|----4-------6--------8---------------------------------------|
C|----6-------7--------9-----------------------------------9\--|
G|----6-------7--------9-----------------------------------9\--|
D|---------------------7-----------------------------------7\--|
                            |--missing notes--|
   

   
   Scintillating and inspirational
D|----------------------------------|
A|----------------------------------|
F|----------------------------------|
C|----------------------------------|
G|----------------------------------|
D|----------------------------------|
 
   conversation               Little purpose
   Death to everyone          little consequence
   [4x]                       [4x]
D|-----------------|-------|-----------------|-------|
A|--4-0-5-0-7-0-0--|--2-4--|--5-0-7-0-9-0-0--|--4-5--|
F|-----------------|-------|-----------------|-------|
C|-----------------|-------|-----------------|-------|
G|-----------------|-------|-----------------|-------|
D|-----------------|-------|-----------------|-------|

   Too combative,              Different person,
   too cool to realise         different argument
   [4x]                        [4x]
D|-----------------|---------|------------------|-------|
A|--4-0-5-0-7-0-0--|--9-0-0--|--9-0-12-0-7-9-0--|--5-7--|
F|-----------------|---------|------------------|-------|
C|-----------------|---------|------------------|-------|
G|-----------------|---------|------------------|-------|
D|-----------------|---------|------------------|-------|

   In my shadow,              One more person           I'm still waiting
   no more compliments        breaking the rules again  for someone else to join in
   [4x]                       [4x]                      [4x]
D|-----------------|-------|-----------------|-------|-----------------|---------|
A|--4-0-5-0-7-0-0--|--2-4--|--5-0-7-0-9-0-0--|--4-5--|--4-0-5-0-7-0-0--|--9-0-0--|
F|-----------------|-------|-----------------|-------|-----------------|---------|
C|-----------------|-------|-----------------|-------|-----------------|---------|
G|-----------------|-------|-----------------|-------|-----------------|---------|
D|-----------------|-------|-----------------|-------|-----------------|---------|

                                    Stand where the others stand
D|------------16-0-------------------------------16-0--------------------------|
A|--16-0-17-0------0-16-0-17-0-19-0-17-16-0-17-0------0-16-0-17-0-19-0-21-0-0--|
F|-----------------------------------------------------------------------------|
C|-----------------------------------------------------------------------------|
G|-----------------------------------------------------------------------------|
D|-----------------------------------------------------------------------------|

                                    We're alive tonight
D|------------16-0-------------------------------16-0--------------------------|
A|--16-0-17-0------0-16-0-17-0-19-0-17-16-0-17-0------0-21-0-0-0-19-0-21\------|
F|-----------------------------------------------------------------------------|
C|-----------------------------------------------------------------------------|
G|-----------------------------------------------------------------------------|
D|-----------------------------------------------------------------------------|


Chorus [x2]:

      I am going home   forever and ever more   No I was never born
D|--0-----------------0-----------------------0---------------------0--|
A|--0-----------------0-----------------------0---------------------0--|
F|--1-----------------7-----------------------6---------------------4--|
C|--2-----------------7-----------------------6---------------------4--|
G|--2-----------------5-----------------------4---------------------2--|
D|--0------------------------------------------------------------------|

   and there's no such thing as home
D|-------------0-------0-------------0----------------------|
A|-------------0-------0-------------0----------------------|
F|-------------2-------4-------------5----------------------|
C|-------------4-------6-------------7----------------------|
G|-------------4-------6-------------7----------------------|
D|----------------------------------------------------------|
                                       |--missing notes--|
                                                                
   We used to stand so strong That's why the others have gone
D|----0-------0--------0-----------------------------------0--|
A|----0-------0--------0-----------------------------------0--|
F|----4-------6--------8-----------------------------------1--|
C|----6-------7--------9-----------------------------------2--|
G|----6-------7--------9-----------------------------------2--|
D|---------------------7-----------------------------------0--|
                            |--missing notes--|


************************************

| /   slide up
| \   slide down
| h   hammer-on
| p   pull-off
| ~   vibrato
| +   harmonic
| x   Mute note
| b   Bend
| pb  Pre-bend
| br  Bend release
| pbr Pre-bend release
| brb Bend release bend

************************************
Tap to rate this tab
# A B C D E F G H I J K L M N O P Q R S T U V W X Y Z