Song name
# A B C D E F G H I J K L M N O P Q R S T U V W X Y Z

Biffy Clyro - Victory Over The Sun tab

BIFFY CLYRO  - VICTORY OVER THE SUN
Drop Db Tuning (DbAbDbGbBbEb)
Intro (9/8 time)
     Bbm                 GbMaj7    
     S S S S S S S S S S E Q.   x4
Eb||-------0h2-------0h2---2---||
Bb||o--0h3-------0h3-------3--o||
Gb||-4---------4---------0-----||
Db||---------------------------||
Ab||o-------------------------o||
Db||---------------------------||

Verse 1
     Bbm                 GbMaj7    
     S S S S S S S S S S E E E E   x4
Eb||-------0h2-------0h2-----0-2--||
Bb||o--0h3-------0h3-------3-----o||
Gb||-4---------4---------0--------||
Db||------------------------------||
Ab||o----------------------------o||
Db||------------------------------||

     Bbm                 Ab    
     S S S S S S S S S S E E E E   
Eb||-------0h2-------0h2-------0--|
Bb||o--0h3-------0h3-------0-2----|
Gb||-4---------4---------2--------|
Db||------------------------------|
Ab||o-----------------------------|
Db||------------------------------|

    GbMaj7              Ab7    
    S S S S S S S S S S E E E E   
Eb|-------0h2-------0h2----------||
Bb|---0h3-------0h3---------2-0-o||
Gb|-0---------0-----------0------||
Db|---------------------2--------||
Ab|-----------------------------o||
Db|------------------------------||

REPEAT THE WHOLE THING TWICE

Break (Double time, 4/4)

     a E. E. a Q.Q.    a E. E. a Q E E E  x4
Eb||-----------------|--------------------||
Bb||o-----3--3/5-7---|------3--3/5-7-8-7-o||
Gb||-2/4-------------|-2/4----------------||
Db||-----------------|--------------------||
Ab||o----------------|-------------------o||
Db||-----------------|--------------------||

Verse 2
    Bbm                        Ebsus2
    W     +H..  S S   Q    w    W     +W     Q. Q. Q   +W
Eb|-7---|-(7)---7-7-|-7\--|---|-7---|-(7)--|-7-------|-(7)-|
Bb|-7---|-(7)---7-7-|-7\--|---|-7---|-(7)--|----7----|-(7)-|
Gb|-7---|-(7)---7-7-|-7\--|---|-9---|-(9)--|-------9-|-(9)-|
Db|-----|-----------|-----|---|-----|------|---------|-----|
Ab|-----|-----------|-----|---|-----|------|---------|-----|
Db|-----|-----------|-----|---|-----|------|---------|-----|


     a E. E. a Q.Q.  x3 a E. E. a Q E E E  
Eb||-----------------||-------------------|
Bb||o-----3--3/5-7--o||------3--3/5-7-8-7-|
Gb||-2/4-------------||-2/4---------------|
Db||-----------------||-------------------|
Ab||o---------------o||-------------------|
Db||-----------------||-------------------|

     a E. E. a Q.Q.  x3    E E E E E E E E  
Eb||-----------------||----0-0-0-0-0-0-0-0-|
Bb||o-----3--3/5-7--o||-7pb8=8=8=8=8r7-7-7-|
Gb||-2/4-------------||--------------------|
Db||-----------------||--------------------|
Ab||o---------------o||--------------------|
Db||-----------------||--------------------|

CHORUS (7/4)
   Bbm              Dbsus4
    Q.  E E  E  E E E E E E E E
Eb|-----------------------------|
Bb|-------------------8-8-8-8-8-|
Gb|-------------------7-7-7-7-7-|
Db|-9---9-12-11-9-9-0-7-7-7-7-7-|
Ab|-9---9-12-11-9-9-0-5-5-5-5-5-|
Db|-9---9-12-11-9-9-0-0-0-0-0-0-|

    Ebm          Gb
    Q.  E Q  E E E E E E E E
Eb|--------------------------|
Bb|--------------------------|
Gb|--------------7-7-7-7-7-7-|
Db|-2---2-2--2-2-5-5-5-5-5-5-|
Ab|-2---2-2--2-2-5-5-5-5-5-5-|
Db|-2---2-2--2-2-5-5-5-5-5-5-|

   Bbm              Ab
    Q.  E E  E  E E E E E E E E
Eb|-----------------------------|
Bb|-----------------------------|
Gb|-------------------9-9-9-9---|
Db|-9---9-12-11-9-9-0-7-7-7-7---|
Ab|-9---9-12-11-9-9-0-7-7-7-7-0-|
Db|-9---9-12-11-9-9-0-7-7-7-7-0-|

    Ebm          Gb
    Q.  E Q  E E E E E E E E
Eb|--------------------------|
Bb|--------------8-8-8-8-8-7-|
Gb|--------------7-7-7-7-7-7-|
Db|-2---2-2--2-2-5-5-5-5-5-5-|
Ab|-2---2-2--2-2-5-5-5-5-5-5-|
Db|-2---2-2--2-2-5-5-5-5-5-5-|

    Bbm              Dbsus4
    Q.  E E  E  E E E E E E E E
Eb|-----------------------------|
Bb|-------------------8-8-8-8-8-|
Gb|-------------------7-7-7-7-7-|
Db|-9---9-12-11-9-9-0-7-7-7-7-7-|
Ab|-9---9-12-11-9-9-0-5-5-5-5-5-|
Db|-9---9-12-11-9-9-0-0-0-0-0-0-|

    Ebm          Gb
    Q.  E Q  E E E E E E E E
Eb|--------------------------|
Bb|--------------------------|
Gb|--------------7-7-7-7-7-7-|
Db|-2---2-2--2-2-5-5-5-5-5-5-|
Ab|-2---2-2--2-2-5-5-5-5-5-5-|
Db|-2---2-2--2-2-5-5-5-5-5-5-|

   Bbm              Ab
    Q.  E E  E  E E E E E E E E
Eb|-----------------------------|
Bb|-----------------------------|
Gb|-------------------9-9-9-9---|
Db|-9---9-12-11-9-9-0-7-7-7-7---|
Ab|-9---9-12-11-9-9-0-7-7-7-7-0-|
Db|-9---9-12-11-9-9-0-7-7-7-7-0-|

4/4
    Ebm          Gb
    Q.  E Q  E E   E E E E E E
Eb|--------------|---------------|
Bb|--------------|---------------|
Gb|--------------|-7-7-7-7-7-7-7-|
Db|-2---2-2--2-2-|-5-5-5-5-5-5-5-|
Ab|-2---2-2--2-2-|-5-5-5-5-5-5-5-|
Db|-2---2-2--2-2-|-5-5-5-5-5-5-5-|

Verse 3

     a E. E. a Q.Q.    a E. E. a Q E Q    x4
Eb||-----------------|--------------------||
Bb||o-----3--3/5-7---|------3--3/5-7/12\-o||
Gb||-2/4-------------|-2/4----------------||
Db||-----------------|--------------------||
Ab||o----------------|-------------------o||
Db||-----------------|--------------------||



     a E. E. a Q Q.  x3 a E. E. a Q E E E  
Eb||-----------------||-------------------|
Bb||o-----3--3/5-7--o||------3--3/5-7-8-7-|
Gb||-2/4-------------||-2/4---------------|
Db||-----------------||-------------------|
Ab||o---------------o||-------------------|
Db||-----------------||-------------------|

     a E. E. a Q.Q.  x3    E E E E E E E E  
Eb||-----------------||----0-0-0-0-0-0-0-0-|
Bb||o-----3--3/5-7--o||-7pb8=8=8=8=8r7-7-7-|
Gb||-2/4-------------||--------------------|
Db||-----------------||--------------------|
Ab||o---------------o||--------------------|
Db||-----------------||--------------------|

CHORUS (7/4)
    Bbm              Dbsus4
    Q.  E E  E  E E E E E E E E
Eb|-----------------------------|
Bb|-------------------8-8-8-8-8-|
Gb|-------------------7-7-7-7-7-|
Db|-9---9-12-11-9-9-0-7-7-7-7-7-|
Ab|-9---9-12-11-9-9-0-5-5-5-5-5-|
Db|-9---9-12-11-9-9-0-0-0-0-0-0-|

    Ebm          Gb
    Q.  E Q  E E E E E E E E
Eb|--------------------------|
Bb|--------------------------|
Gb|--------------7-7-7-7-7-7-|
Db|-2---2-2--2-2-5-5-5-5-5-5-|
Ab|-2---2-2--2-2-5-5-5-5-5-5-|
Db|-2---2-2--2-2-5-5-5-5-5-5-|

   Bbm              Ab
    Q.  E E  E  E E E E E E E E
Eb|-----------------------------|
Bb|-----------------------------|
Gb|-------------------9-9-9-9---|
Db|-9---9-12-11-9-9-0-7-7-7-7---|
Ab|-9---9-12-11-9-9-0-7-7-7-7-0-|
Db|-9---9-12-11-9-9-0-7-7-7-7-0-|

    Ebm          Gb
    Q.  E Q  E E E E E E E E
Eb|--------------------------|
Bb|--------------8-8-8-8-8-7-|
Gb|--------------7-7-7-7-7-7-|
Db|-2---2-2--2-2-5-5-5-5-5-5-|
Ab|-2---2-2--2-2-5-5-5-5-5-5-|
Db|-2---2-2--2-2-5-5-5-5-5-5-|

   Bbm              Dbsus4
    Q.  E E  E  E E E E E E E E
Eb|-----------------------------|
Bb|-------------------8-8-8-8-8-|
Gb|-------------------7-7-7-7-7-|
Db|-9---9-12-11-9-9-0-7-7-7-7-7-|
Ab|-9---9-12-11-9-9-0-5-5-5-5-5-|
Db|-9---9-12-11-9-9-0-0-0-0-0-0-|

    Ebm          Gb
    Q.  E Q  E E E E E E E E
Eb|--------------------------|
Bb|--------------------------|
Gb|--------------7-7-7-7-7-7-|
Db|-2---2-2--2-2-5-5-5-5-5-5-|
Ab|-2---2-2--2-2-5-5-5-5-5-5-|
Db|-2---2-2--2-2-5-5-5-5-5-5-|

   Bbm              Ab
    Q.  E E  E  E E E E E E E E
Eb|-----------------------------|
Bb|-----------------------------|
Gb|-------------------9-9-9-9---|
Db|-9---9-12-11-9-9-0-7-7-7-7---|
Ab|-9---9-12-11-9-9-0-7-7-7-7-0-|
Db|-9---9-12-11-9-9-0-7-7-7-7-0-|

    Ebm          Gb
    Q.  E Q  E E E E E E E E
Eb|--------------------------|
Bb|--------------8-8-8-8-8-7-|
Gb|--------------7-7-7-7-7-7-|
Db|-2---2-2--2-2-5-5-5-5-5-5-|
Ab|-2---2-2--2-2-5-5-5-5-5-5-|
Db|-2---2-2--2-2-5-5-5-5-5-5-|

Bridge (7/4)

   Bbm              Dbsus4
    Q.  E E  E  E E E E E E E E
Eb|-----------------------------|
Bb|-----------------------------|
Gb|-----------------0-0-0-0-0-0-|
Db|-9---9-12-11-9-9-7-7-7-7-7-7-|
Ab|-9---9-12-11-9-9-5-5-5-5-5-5-|
Db|-9---9-12-11-9-9-0-0-0-0-0-0-|

   Ebm            Gb
    Q.  E E E E E E E E E E E
Eb|---------------------------|
Bb|---------------------------|
Gb|---------------------------|
Db|-2---2-5-4-2-2-5-5-5-5-5-5-|
Ab|-2---2-5-4-2-2-5-5-5-5-5-5-|
Db|-2---2-5-4-2-2-5-5-5-5-5-5-|

   Bbm              Ab
    Q.  E E  E  E E E E E E E E
Eb|-----------------------------|
Bb|-----------------------------|
Gb|-------------------9-9-9-9---|
Db|-9---9-12-11-9-9-0-7-7-7-7---|
Ab|-9---9-12-11-9-9-0-7-7-7-7-0-|
Db|-9---9-12-11-9-9-0-7-7-7-7-0-|

    Ebm          Gb
    Q.  E Q  E E E E E E E E
Eb|--------------------------|
Bb|--------------8-8-8-8-8-7-|
Gb|--------------7-7-7-7-7-7-|
Db|-2---2-2--2-2-5-5-5-5-5-5-|
Ab|-2---2-2--2-2-5-5-5-5-5-5-|
Db|-2---2-2--2-2-5-5-5-5-5-5-|

   Bbm              Dbsus4
    Q.  E E  E  E E E E E E E E
Eb|-----------------------------|
Bb|-----------------------------|
Gb|-----------------0-0-0-0-0-0-|
Db|-9---9-12-11-9-9-7-7-7-7-7-7-|
Ab|-9---9-12-11-9-9-5-5-5-5-5-5-|
Db|-9---9-12-11-9-9-0-0-0-0-0-0-|

   Ebm            Gb
    Q.  E E E E E E E E E E E
Eb|---------------------------|
Bb|---------------------------|
Gb|---------------------------|
Db|-2---2-5-4-2-2-5-5-5-5-5-5-|
Ab|-2---2-5-4-2-2-5-5-5-5-5-5-|
Db|-2---2-5-4-2-2-5-5-5-5-5-5-|

   Bbm              Ab
    Q.  E E  E  E E E E E E E E
Eb|-----------------------------|
Bb|-----------------------------|
Gb|-------------------9-9-9-9---|
Db|-9---9-12-11-9-9-0-7-7-7-7---|
Ab|-9---9-12-11-9-9-0-7-7-7-7-0-|
Db|-9---9-12-11-9-9-0-7-7-7-7-0-|

4/4
    Ebm          Gb
    Q.  E Q  E E   E E E E E E
Eb|--------------|---------------|
Bb|--------------|---------------|
Gb|--------------|-7-7-7-7-7-7-7-|
Db|-2---2-2--2-2-|-5-5-5-5-5-5-5-|
Ab|-2---2-2--2-2-|-5-5-5-5-5-5-5-|
Db|-2---2-2--2-2-|-5-5-5-5-5-5-5-|

Outro (Half time, 9/8)
    Bbm                 GbMaj7    
    S S S S S S S S S S E Q.  
Eb|-------0h2-------0h2---2---|
Bb|---0h3-------0h3-------3---|
Gb|-4---------4---------0-----|
Db|---------------------------|
Ab|---------------------------|
Db|---------------------------|

    Bbm                 Gb    
    S S S S S S S S S S E  Q.  
Eb|-------0h2-------0h2-------||
Bb|---0h3-------0h3-----------||
Gb|-4---------4---------0-{5}-||
Db|-----------------------{5}-||
Ab|---------------------------||
Db|---------------------------||

Legend: 
h = hammer
p = pulloff
/ or \ = slide
pb = pre-bend
r = release
= denotes a held bend

{n} = natural harmonic at fret n
(n) = note is held

||o and o|| indicate the start and end of a repeated section.
[n] indicates a note to be played on the SECOND REPEAT ONLY.

W = Whole note
H = Half note
Q = Quarter note
E = Eighth note
S = Sixteenth note
a = appoggiatura
+ denotes a tie

LYRICS:
Trees will speak before you listen
Oh my God, no one knows that
We can barely stand each other
It's not right, no it's not fair
Cause I'd wait anywhere for you
Would you wait for me?

Bleeding tears is the least of our problems here
We can moan our family's gone, blistered feelings
All we have's diseased organs
And I'd die anytime for you
Would you die for me?

Keep digging for the rest of your days
Say something please it's time to pay
Smoke crack for me, read jack for me,
At this time I'd let you spit in my face

I can only make you see the moon,
You can touch it but that's up to you
This is happening because of you
Stay special brother you stay true

We can change the world despite all our enemies
We're fighting on, listen to your heart and sing
We’re praying for love, it feels like a memory
If we hold on, there's a victory over the sun

Collapse in front of all of your peers
Stop bleeding, keep blocking your ears
Eating babies, drinking black brandy,
Squinting all night through your demonic haze

I can only make you see the moon,
You can touch it but that's up to you
This is happening because of you
Stay special brother you stay true

We can change the world despite all our enemies
We're fighting on, listen to your heart and sing
We’re praying for love, it feels like a memory
If we hold on, there's a victory over the sun
Victory over the sun
Victory over the sun
Victory over the sun
There's a victory over the sun
Tap to rate this tab
 
# A B C D E F G H I J K L M N O P Q R S T U V W X Y Z