Song name
# A B C D E F G H I J K L M N O P Q R S T U V W X Y Z

Biffy Clyro - A Day Of tab

A DAY OF...-BIFFY CLYRO-VERTIGO OF BLISS
Tabbed by:Frusciante_50
Drop D Tuning

Intro:

e|--0-----------------------3--2--------------------------------------------|
B|--11fb--------------------------------------------------------------------|
G|---------0----------0--4--------------------------------------------------|
D|---------------0--4-------------------------------------------------------|
A|--------------------------------------------------------------------------|
D|--------------------------------------------------------------------------|

Main riff:

e|-------0--2hb--------0--2hb--------0--2hb--------------3--2---------------|
B|--------------------------------------------------------------------------|
G|--------------------------------------------------0--4--------------------|
D|-2--2-----------2--2---------2--2-----------0--4--------------------------|
A|-2--2-----------2--2---------2--2-----------------------------------------|
D|-2--2-----------2--2---------2--2-----------------------------------------|

Play main riff x4, then play

Verse riff:

e|--------------------------------------------------------------------------|
B|--9---9-8---8-7------4-4--4-5-5-5----5-5-7--------------------------------|
G|--9---9-9---9-7------5-5--5-5-5-5----5-5-5--------------------------------|
D|--------------------------------------------------------------------------|
A|--------------------------------------------------------------------------|
D|--------------------------------------------------------------------------|

Play verse riff x2, then play main riff again x4

Then play verse riff x2 again with distortion


Then play [? means play as many times as needed, follow the rhythm, and it is simple]:

e|--------------------------------------------------------------------------|
B|--------------------------------------------------------------------------|
G|----------12----------8--8-8-8-8-8---------3---------5--------------------|
D|-2--------10----------7--7-7-7-7-7---------1---------3--------------------|
A|-2-[x?]---10-[x?]-----7--7-7-7-7-7---[x4]--1-[x16]---3-[x16]--------------|
D|-2--------10----------7--7-7-7-7-7---------1---------3--------------------|


Then play this [x2] :

e|--------------------------------------------------------------------------|
B|--------------------------------------------------------------------------|
G|----------12----------8--8-8-8-8-8---------3---------5--------------------|
D|-2--------10----------7--7-7-7-7-7---------1---------3--------------------|
A|-2-[x?]---10-[x?]-----7--7-7-7-7-7-[x3]----1-[x16]---3-[x16]--------------|
D|-2--------10----------7--7-7-7-7-7---------1---------3--------------------|

Outro riff:

e|-------0-2hb-------0-2hb--------0-2hb----------0-2hb----------------------|
B|--------------------------------------------------------------------------|
G|--------------------------------------------------------------------------|
D|-2--2---------2--2---------2--2---------2--2------------2-2-2---2-2-2-----|
A|-2--2---------2--2---------2--2---------2--2------------2-2-2---2-2-2-----|
D|-2--2---------2--2---------2--2---------2--2------------2-2-2---2-2-2-----|

e|---------------3--2-------------------------------------------------------|
B|-------------------------------2----3-------------------------------------|
G|---------0--4------------3--4----4--4-------------------------------------|
D|---0--4----------------4--------------------------------------------------|
A|---------------------4----------------------------------------------------|
D|--------------------------------------------------------------------------|

ENJOY
Tap to rate this tab
# A B C D E F G H I J K L M N O P Q R S T U V W X Y Z