Song name
# A B C D E F G H I J K L M N O P Q R S T U V W X Y Z

Biffy Clyro - Trumpet Or Tap tab

This is my first full tab, it's a great song to play and isn't too tricky either. Feel 
free to amend stuff in the comments.

Tuning: Drop C#

Intro:
D#|-----8p0-/12-------0---|
A#|-8/10----/13------9----|
F#|--------------8/10---7~| X2
C#|-----------------------|
G#|-----------------------|
C#|-----------------------|

|-----8p0-/12-12-12--------0-----------8p0-----8p0-----8p0-----0-|
|-8/10----/13-13-13------10----------10------10------10------10--|
|--------------------9/11----7^9---10------10------10------10----|
|----------------------------------------------------------------|
|----------------------------------------------------------------|
|----------------------------------------------------------------|

Break:
|-----7-----8p0-----8p0-----8p0-----0-|
|---8-----10------10------10------10--|
|-9-----10------10------10------10----| X2
|-------------------------------------|
|-------------------------------------|
|-------------------------------------|

Verse:
|----------------------------------------------------------------------------|
|------------------------------------------------5---------5----------/13-12-|
|9>----9--7/9-9/10-10/12-10-9-7\------5-----4-5-7-----4-5-7---------9--------|
|7>----7------------------------------3--5-7-------5-7--------------7--------|
|7>----7------------------------------3-----------------------------7--------|
|7>----7------------------------3~----3-----------------------7~----7--------|
PM                                       ....................

-----------------------------------------------------------------------------|
-10-7^8------------------5---------5-----------/13-12-10-7^8----------/13-12-|
----7^8-5~----5-----4-5-7-----4-5-7----9~----9-----------7^8--------6--------|
--------------3--5-7-------5-7---------------7----------------------4--------|
--------------3------------------------------7----------------------4--------|
--------------3------------------------------7----------------4~----4--------|
PM              ....................

                (verse I)              (verse II)
---------------|----------------------|---------------------|
-10-7^8--------|----------5---------5-|---------------------|
----7^8-5~----5|-----4-5-7-----4-5-7--|5-5--5-5-5-5-5-5-5-5-|
--------------3|--5-7-------5-7-------|3-3--3-3-3-3-3-3-3-3-|
--------------3|----------------------|3-3--3-3-3-3-3-3-3-3-|
--------------3|----------------------|3-3--3-3-3-3-3-3-3-3-|

BREAK X2

Chorus:
|-----------------------------------------------------------------------------|
|-----------------------------------------------------------------------------|
|------------------------------------------------------10-10-10---------------|
|7-7-7-7-7-7-10-10-10-3-3-3-10-10-10-3-3-3-2-2-2-5-5-5-5--5--5-10-10-10-10-10-|
|7-7-7-7-7-7-10-10-10-3-3-3-10-10-10-3-3-3-2-2-2-5-5-5-5--5--5-10-10-10-10-10-|
|7-7-7-7-7-7-10-10-10-3-3-3-10-10-10-3-3-3-2-2-2-5-5-5-5--5--5-10-10-10-10-10-|

-------------------------------------------------------------|
-------------------------------------------------------------|
----------------------------------------7-7-7-9-9-9-10-10-10-|
-10-3-3-3-10-10-10-3-3-3-10-10-10-2-2-2-5-5-5-5-5-5-5--5--5--|
-10-3-3-3-10-10-10-3-3-3-10-10-10-2-2-2-5-5-5-5-5-5-5--5--5--|
-10-3-3-3-10-10-10-3-3-3-10-10-10-2-2-2-5-5-5-5-5-5-5--5--5--|

VERSE II

BREAK

CHORUS

Middle Section:
|-----------------------------------------------------------------------------|
|-----------------------------------------------------------------------------|
|-----------------------9-9-9-9-9-9-10-10-10-9-9-9-12-12-12-12-12-12-10-10-10-|
|0-3-0-3--0-3--0-3-2-0--7-7-7-7-7-7-7--7--7--7-7-7-10-10-10-10-10-10-10-10-10-|
|0-3-0-3--0-3--0-3-2-0--7-7-7-7-7-7-7--7--7--7-7-7-10-10-10-10-10-10-10-10-10-|
|0-3-0-3--0-3--0-3-2-0--7-7-7-7-7-7-7--7--7--7-7-7-10-10-10-10-10-10-10-10-10-|

-------------------------------------|
-------------------------------------|
----------7-7-7-7-7-7-10-10-10-9-9-9-| X3
-14-14-14-5-5-5-5-5-5-5--5--5--5-5-5-|
-10-10-10-5-5-5-5-5-5-5--5--5--5-5-5-|
-10-10-10-5-5-5-5-5-5-5--5--5--5-5-5-|

Ending:
|-----------------------------------------------------------------------------|
|-----------------------------------------------------------------------------|
|-----------------------------------------9-9-9-9-9-9-10-10-10-9-9-9-12-12-12-|
|0-3-0-3--0-3-0-3-2-0-0-3-0-3-0-3-0-3-2-0-7-7-7-7-7-7-7--7--7--7-7-7-10-10-10-|
|0-3-0-3--0-3-0-3-2-0-0-3-0-3-0-3-0-3-2-0-7-7-7-7-7-7-7--7--7--7-7-7-10-10-10-|
|0-3-0-3--0-3-0-3-2-0-0-3-0-3-0-3-0-3-2-0-7-7-7-7-7-7-7--7--7--7-7-7-10-10-10-|

----------------------------------------------------------------------|
----------------------------------------------------------------------|
-12-12-12-10-10-10----------7-7-7-7-7-7-10-10-10-9-9-9-7-7-8-9---9-9-9|
-10-10-10-10-10-10-14-14-14-5-5-5-5-5-5-5--5--5--5-5-5-5-5-6-7---7-7-7|
-10-10-10-10-10-10-10-10-10-5-5-5-5-5-5-5--5--5--5-5-5-5-5-6-7---7-7-7|
-10-10-10-10-10-10-10-10-10-5-5-5-5-5-5-5--5--5--5-5-5-5-5-6-7---7-7-7|

legend:
/ = Slide up
^ = Bend up to
~ = Slow vibrato
. (under tab) = palm mute
Tap to rate this tab
 
# A B C D E F G H I J K L M N O P Q R S T U V W X Y Z