Song name
# A B C D E F G H I J K L M N O P Q R S T U V W X Y Z

Biffy Clyro - Trumpet Or Tap tab

Couldn't believe there isn't a tab of this online?!
Tuning: Drop C#

d#------8-0-/12-----------0----| X2
A#--8/10----/13----------9-----|
F#-------------------8/10---7~-|
C#-----------------------------|
G#-----------------------------|
C#-----------------------------|

-------8-0-/12-12-12---------0------------8p0----8p0----8p0----0---|
---8/10----/13-13-13-------10-----------10-----10-----10-----10----|
----------------------9/11----7^9----10-----10-----10-----10-------|
-------------------------------------------------------------------|
-------------------------------------------------------------------|
-------------------------------------------------------------------|

-----7----8p0----8p0----8p0----0---|
---8----10-----10-----10-----10----|
-9----10-----10-----10-----10------|  X2
-----------------------------------|
-----------------------------------|
-----------------------------------|

I'll get the rest finished as soon as I figure it out! First tab so be nice!
Tap to rate this tab
# A B C D E F G H I J K L M N O P Q R S T U V W X Y Z