Guitaretab - guitar tabs
Song name
# A B C D E F G H I J K L M N O P Q R S T U V W X Y Z

Biffy Clyro - Kill The Old Torture Their Young tab

www.biffierthanthou.com

Intro
G--------------------------------------------------|
D--------------------------------------------------|
A--00000-00000-000-00000-00000-000-----------------|
D--------------------------------------------------|

G-----------------------------------------------------|
D-----------------------------------------------------|
A-----------------------------------------------------|
D--00000-00000-000-00000-00000-000--------------------|


'open your head...' 'turn your back...'
G-------------------------|
D-------------------------|
A--00000-00000-000 -------|  x2
D-------------------------|

G-- ------------------|
D --------------------|
A--11111-11111-111----|  x2
D---- ----------------|


'...from me'
G----------------------|
D----------------------|
A--00000-00000-000-----| x2
D----------------------|

G-------------------------|
D--00000-00000-000--------|
A-------------------------|
D-------------------------|


(the bit that starts slowing down)
G-------------------------------------|
D-------------------------------------|
A-------------------------------------|
D--33333-33333-333 (repeat until 0.53-|

G-----------------------------------|
D-----------------------------------|
A-2--2-22--2--2---------------------|
D-------------------3-3-33--3--3----|

G-----------------------0---------------|
D---------------------------------------|
A--0--0-00--0--0--2---2-2---2--2--------|
D---------------------------------------|

G---------------------------------------|
D---------------------------------------|
A--3--3-33--3--3------------------------|
D--------------------3--3-33--3--3------|

G------------|
D------------|
A-----0--3---| x 6 (work out the pickings yourself)
D--0-------3-|
[ Tab from: http://www.guitaretab.com/b/biffy-clyro/35446.html ]
G------4-----5----------------------------------------------------|
D----3-----5---------------------------------------2--0-----------|
A--2-----3---------------------------------------3-------2-2---2--| X2
D--------------0--2--3--3-333-3--3--2--0--------------------------|

then back to...
G-------------------------------|
D-------------------------------|
A-----0--3-- reapeat until 3.08-|
D--0-------3--------------------|

G------4-----5-----------------------------------------------------|
D----3-----5---------------------------------------2--0------------|
A--2-----3--------------------------------------3--------2-2---2---| X2
D--------------0--2--3--3-333-3--3--2--0---------------------------|

G-------------|
D-------------|
A--5--0--3----|
D-----------3-|

G-----------|
D-----------|
A----0--3---| these are the notes, work out your own strumming
D--0--------|

at 4.46
G---------------------|
D---------------------|
A---------------2--4--|
D--3-3---3-3--0-------|

at 5.00

G------------------------|
D------------------------|
A------------------------|
D--3-3-3-3-3-3-3---------|

at 5.36
G-----------------------------------------------------------|
D-----------------------------------------------------------|
A-----------------------------------------------------------|
D--10\3-3-3-3-3----10\3-3-3-3-3----0-0-0-0------------------|

G------------------------------------------------------------------------|
D------------------------------------------------------------------------|
A------------------------------------------------------------------------|
D--10\3-3-3-3-3----10\3-3-3-3-3---10\0-0-0-0 10/0-0-0-0------------------|

G---------------------|
D---------------------|
A---------------------|
D-3-3-3-3-3-3---------|
Related for Kill The Old Torture Their Young tab
×
Best way to learn
"Kill The Old Torture Their Young"