Song name
# A B C D E F G H I J K L M N O P Q R S T U V W X Y Z

Biffy Clyro - The Rain tab

THE RAIN 
BIFFY CLYRO
INTRODUCTION

TUNING: Half-step down + Drop "D"
SO YOU SHOULD HAVE: Db, Ab, Db, Gb, Bb and Eb

|-------------------------------|-----------------------------------------------|
|-10--8--------8--------8-------|-10---------8---------8---------8--------------|
|----------0-------0---------0--|-------0---------0---------0---------0---------|
|-------------------------------|-----------------------------------------------|
|-6---7--7--7--7--7--7--7--7--7-|-6---6---6--7--7---7--7--7---7--7--7---7-------|
|-------------------------------|-----------------------------------------------|

|---------------------------------------------|------------------------------------------|
|-10--------8-----------8----------8----------|-10--------8---------8--------8-----------|
|------0----------0----------0-----------0----|------0---------0---------0---------0-----|
|---------------------------------------------|------------------------------------------|
|-6--6---6--7---7---7---7--7---7---7---7---7--|-9--9---9--7--7---7--7--7--7--7--7---7----|
|---------------------------------------------|------------------------------------------|


** The rest will follow in a few weeks.
Tap to rate this tab
 
# A B C D E F G H I J K L M N O P Q R S T U V W X Y Z