Song name
# A B C D E F G H I J K L M N O P Q R S T U V W X Y Z

Biffy Clyro - Many Of Horror tab

Tuning: (C#,G#,C#,F#,A#,D#)

D#|---------------------------------------------------|
A#|---------------------------------------------------|
F#|-7-9--11-----2-4-6-----12-11-7-----12-11-6---------| X
C#|-0-0--0------0-0-0-----0--0--0-----0--0--0-----| 2-|
G#|---------------------------------------------------|
C#|-9-11-12-----4-5-7-----14-12-9-----14-12-7---------|

Pre-Chorus:

D#|---------------------------------|
A#|---------------------------------|
F#|-7-9-/11\4-----2/7\4-----6-------|
C#|-0-0-/0-\0-----0/0\0-----0-------|
G#|---------------------------------|
C#|-9-11/12\5-----4/9\5-----7-------|

Chorus:

D#|--------------------------------------|
A#|--------------------------------------|
F#|-12-11-9--11-----12-11-9--7-4---------| X
C#|-0--0--0--0------0--0--0--0-0-----| 2-|
G#|--------------------------------------|
C#|-14-12-11-12-----14-12-11-9-5---------|

Verse 2:

D#|-------------------------------------------------|
A#|-------------------------------------------------|
F#|-7-9--11-----2-4-6-----12-11-7-----12-11-6-------|
C#|-0-0--0------0-0-0-----0--0--0-----0--0--0-------|
G#|-------------------------------------------------|
C#|-9-11-12-----4-5-6-----14-12-9-----14-12-7-------|

Pre-Chorus:

D#|---------------------------------|
A#|---------------------------------|
F#|-7-9-/11\4-----2/7\4-----6-------|
C#|-0-0-/0-\0-----0/0\0-----0-------|
G#|---------------------------------|
C#|-9-11/12\5-----4/9\5-----7-------|

Chorus:

D#|--------------------------------------|
A#|--------------------------------------|
F#|-12-11-9--11-----12-11-9--7-4---------| X
C#|-0--0--0--0------0--0--0--0-0-----| 2-|
G#|--------------------------------------|
C#|-14-12-11-12-----14-12-11-9-5---------|

Bridge:

D#|----------------------------------------------------------------|
A#|----------------------------------------------------------------|
F#|-6-----7---4--6-7-9--11-----2-4-6-----12-11-7-----12-11-6-------|
C#|-0-----0---0--0-0-0--0------0-0-0-----0--0--0-----0--0--0-------|
G#|----------------------------------------------------------------|
C#|-7-----9---5--7-9-11-12-----4-5-7-----14-12-9-----14-12-7-------|

Instrumental Verse:

D#|-------------------------------------------------|
A#|-------------------------------------------------|
F#|-7-9--11-----2-4-6-----12-11-7-----12-11-6-------|
C#|-0-0--0------0-0-0-----0--0--0-----0--0--0-------|
G#|-------------------------------------------------|
C#|-9-11-12-----4-5-7-----14-12-9-----14-12-7-------|

Pre-Chorus:

D#|---------------------------------|
A#|---------------------------------|
F#|-7-9-/11\4-----2/7\4-----6-------|
C#|-0-0-/0-\0-----0/0\0-----0-------|
G#|---------------------------------|
C#|-9-11/12\5-----4/9\5-----7-------|

Chorus:

D#|--------------------------------------|
A#|--------------------------------------|
F#|-12-11-9--11-----12-11-9--7-4---------| X
C#|-0--0--0--0------0--0--0--0-0-----| 2-|
G#|--------------------------------------|
C#|-14-12-11-12-----14-12-11-7-5---------|
Tap to rate this tab
# A B C D E F G H I J K L M N O P Q R S T U V W X Y Z