Song name
# A B C D E F G H I J K L M N O P Q R S T U V W X Y Z

Biffy Clyro - Diary Of Always tab

--------------------------------------------------------------------------
                        BIFFY CLYRO: DIARY OF ALWAYS
--------------------------------------------------------------------------
Tuning: Drop D (DADGBE)

[modelled after youtube.com/watch?v=K0wR2doiBls]


VERSE
I'm the one distinctly plain to you...

E|-----------------------------------7-----------7----------------|
B|-------------------------------------7-----------7--------------|
G|-12------5-----5-----------------------5-----------5------7-7-7-|
D|---12------5-----5----12-12-(x2)---------------------5----------|
A|----------------------------------------------------------------|
D|----------------------------------------------------------------|
   * *    * *    * *    *  *         * * * *     * * * *    * * * (harmonics)
...for a solemn glance is another hopful taste. did you wish for your pain?

CHORUS
E|-----------------------------------------3----------------3--------|
B|---------8---------------8-----------------3----------------3------|
G|-------0---7----------0----7-----------0-----(5)--------0------(5)-|
D|-----9--------------7----------------5----------------5------------|
A|--/7-------------/5---------------/3-------------3-----------------|
D|-------------------------------------------------------------------|
Wish I could have faltered, wish I could have changed

VERSE
E|----------------------------------------------|
B|------------3---------------------12-13-------|
G|--------4-5--------------------12-------------|
D|------0--------------------10-----------------|
A|----5----------(x2)------10-------------(x2)--| Repeat
D|--5--------------------10---------------------|
I'm the one distinctly plain to you, for a solemn glance...

E|-------5---------|
B|-----------------|
G|-----0---7-------|
D|---7-------------|
A|-5----------(x2)-|
D|-----------------|
...is another hopeful taste

OUTRO
E|---------------|
B|---------------|
G|--5-5-5-5--5---|
D|--5-5-5-5--5---|
A|--3-3-3-3--2---| (x4)
D|---------------|
Tap to rate this tab
 
# A B C D E F G H I J K L M N O P Q R S T U V W X Y Z