Song name
# A B C D E F G H I J K L M N O P Q R S T U V W X Y Z

Biffy Clyro - Many Of Horror tab

Half-step Down Tuning:
Many of Horror by Biffy Clyro
Verse
Playing what the lead is Playing here, I suppose it's a bit of a combo of lead and 
chords! You'll have to do your own timings!
Sorry for the mess; this is my first real tab!

Key:
/ Slide up the neck
\ Slide Down the Neck
( )Note continued 
{ } Everything inside is included
x muted string

NOTE: if after / or \ a note is not contained within brackets then play it again!
Also when you get to the part with the Open 0 on the D string, it's optional 
whether to play that or not, I choose not to but I included it anyway, I just mute it!

Verse
{eb|-----------------------------------------------------------------|
{Bb|-----------------------------------------------------------------|
{Gb|-7-9-11---11-----11-----11-\2-4-6--6---6---6-/12-11-7--7---7---7-|
{Db|-----------------------------------------------------------------|
{Ab|-----------------------------------------------------------------|
{Eb|-7-9-10-10--10-10--10-10---\2-3-5-5-5-5-5-5--/12-10-7-7-7-7-7-7--|

eb|------------------------------------------|}
Bb|------------------------------------------|}
Gb|-/12-11-6--6---6---6----------------------|}  All x2
Db|------------------------------------------|} 
Ab|------------------------------------------|}
Eb|-/12-10-5-5-5-5-5-5-----------------------|}

Pre-Chorus
eb|-----------------------------------------------------------------|
Bb|-----------------------------------------------------------------|
Gb|-7/(9)/(11)\4--4---4---4-2/(7)-7\(4)-4--4---4-6--6---6-----------|
Db|-----------------------------------------------------------------|
Ab|-----------------------------------------------------------------|
Eb|-7/(9)/(10)\3-3-3-3-3-3--2/(7)-7\(3)-3-3-3-3--5-5-5-5------------|

Chorus
{eb|--------------------------------------------------------|}
{Bb|--------------------------------------------------------|}
{Gb|-12-11-9-11------11-----11-12-11-9-7-4----4---4---------|} All x2
{Db|--------------------------------------------------------|}
{Ab|--------------------------------------------------------|}
{Eb|-12-10-9-10-10-10--10-10---12-10-9-7-3-3-3-3-3----------|}

Verse 2
eb|-----------------------------------------------------------------|
Bb|-----------------------------------------------------------------|
Gb|-7-9-11---11-----11-----11-\2-4-6--6---6---6-/12-11-7--7---7---7-|
Db|-----------------------------------------------------------------|
Ab|-----------------------------------------------------------------|
Eb|-7-9-10-10--10-10--10-10---\2-3-5-5-5-5-5-5--/12-10-7-7-7-7-7-7--|

eb|------------------------------------------|
Bb|------------------------------------------|
Gb|-/12-11-6--6---6---6----------------------|  [Only once this time!]
Db|------------------------------------------| 
Ab|------------------------------------------|
Eb|-/12-10-5-5-5-5-5-5-----------------------|

Pre-Chorus
eb|-----------------------------------------------------------------|
Bb|-----------------------------------------------------------------|
Gb|-7/(9)/(11)\4--4---4---4-2/(7)-7\(4)-4--4---4-6--6---6-----------|
Db|-----------------------------------------------------------------|
Ab|-----------------------------------------------------------------|
Eb|-7/(9)/(10)\3-3-3-3-3-3--2/(7)-7\(3)-3-3-3-3--5-5-5-5------------|

Chorus (start using a pick and strumming here for the remainder!)
{eb|--------------------------------------------------------|}
{Bb|--------------------------------------------------------|}
{Gb|-12-11-9-11------11-----11-12-11-9-7-4----4---4---------|} All x2
{Db|-0--0--0-0-------0------0--0--0--0-0-0----0---0---------|}
{Ab|-x--x--x-x-------x------x--x--x--x-x-x----x---x---------|}
{Eb|-12-10-9-10-10-10--10-10---12-10-9-7-3-3-3-3-3----------|}

Bridge
eb|--------------------------------------------------------------|
Bb|--------------------------------------------------------------|
Gb|-6---6---6-7--7-4--4-6--6---6-7-9-11---11-----11-----11-------|
Db|-0---0---0-0--0-0--0-0--0---0-0-0-0----0------0------0--------|
Ab|-x---x---x-x--x-x--x-x--x---x-x-x-x----x------x------x--------|
Eb|-5-5--5-5--7-7--3-3--5-5-5-5--7-9-10-10--10-10--10-10---------|

eb|----------------------------------------------------------------------|
Bb|----------------------------------------------------------------------|
Gb|-2-4-6--6---6---6-12-11-7--7---7---7-12-11-6--6---6---6---------------|
Db|-0-0-0--0---0---0-0--0--0--0---0---0-0--0--0--0---0---0---------------|
Ab|-x-x-x--x---x---x-x--x--x--x---x---x-x--x--x--x---x---x---------------|
Eb|-2-3-5-5-5-5-5-5--12-10-7-7-7-7-7-7--12-10-5-5-5-5-5-5----------------|

Verse 3
eb|------------------------------------------------------------------|
Bb|------------------------------------------------------------------|
Gb|-7-9-11---11-----11-----11--2-4-6--6---6---6-12-11-7--7---7---7---|
Db|-0-0-0----0------0------0---0-0-0--0---0---0-0--0--0--0---0---0---|
Ab|-x-x-x----x------x------x---x-x-x--x---x---x-x--x--x--x---x---x---|
Eb|-7-9-10-10--10-10--10-10----2-3-5-5-5-5-5-5--12-10-7-7-7-7-7-7----|

eb|------------------------------------------------|
Bb|------------------------------------------------|
Gb|-12-11-6--6---6---6-----------------------------|  [Only once this time!]
Db|-0--0--0--0---0---0-----------------------------| 
Ab|-x--x--x--x---x---x-----------------------------|
Eb|-12-10-5-5-5-5-5-5------------------------------|

Pre-Chorus
eb|-----------------------------------------------------------------|
Bb|-----------------------------------------------------------------|
Gb|-7/(9)/(11)\4--4---4---4-2/(7)-7\(4)-4--4---4-6--6---6-----------|
Db|-0/(0)/(0-)\0--0---0---0-0/(0)-0\(0)-0--0---0-0--0---0-----------|
Ab|-x/(x)/(x-)\x--x---x---x-x/(x)-x\(x)-x--x---x-x--x---x-----------|
Eb|-7/(9)/(10)\3-3-3-3-3-3--2/(7)-7\(3)-3-3-3-3--5-5-5-5------------|

Chorus
{eb|--------------------------------------------------------|}
{Bb|--------------------------------------------------------|}
{Gb|-12-11-9-11------11-----11-12-11-9-7-4----4---4---------|} All x2
{Db|-0--0--0-0-------0------0--0--0--0-0-0----0---0---------|}
{Ab|-x--x--x-x-------x------x--x--x--x-x-x----x---x---------|}
{Eb|-12-10-9-10-10-10--10-10---12-10-9-7-3-3-3-3-3----------|}

FIN! 
Looks a bit complicated! Sorry, Guys =)

Tap to rate this tab
# A B C D E F G H I J K L M N O P Q R S T U V W X Y Z