Song name
# A B C D E F G H I J K L M N O P Q R S T U V W X Y Z

Biffy Clyro - Skylight tab

tabbed by : plasticman


skylight-biffy clyro


intro/verse x4

    Em              G            D      
e|--0---------------3------------2-----|
B|--0---------------3------------3-----|
G|--0---------------0------------2-----|
D|--2---------------0------------0-----|
A|--2---------------2------------------|
E|--0---------------3------------------|


chorus
     C      Em     D        C      Em     D                  
e|---0------0------2--------0------0------2-----0---0---0---|
B|---1------0------3--------1------0------3------3---3---3--|
G|---0------0------2--------0------0------2-------2---2---2-|
D|---2------2------0--------2------2------0-----------------|
A|---3------2---------------3------2------------------------|
E|----------0----------------------0------------------------|
we can dream ....


verse X2

chorus
    C      Em     D      C      G      Bm    
e|--0------0------2------0------3------2----|
B|--1------0------3------1------3------3----|
G|--0------0------2------0------0------4----|
D|--2------2------0------2------0------4----|
A|--3------2-------------3------2------2----|
E|---------0--------------------3-----------|
we can dream.....


     Em     G      D      A   
e|---0------3------2------0--|
B|---0------3------3------2--|
G|---0------0------2------2--|
D|---2------0------0------2--|X2
A|---2------2-------------0--|
E|---0------3----------------|
we're users but......



    C      G      Em     C     G      D      C       
e|--0------3------0------0-----3------2------0------|
B|--1------3------0------1-----3------3------1------|
G|--0------0------0------0-----0------2------0------|
D|--2------0------2------2-----0------0------2------|
A|--3------2------2------3-----2-------------3------|
E|---------3------0------------3--------------------|
some say love...


outro
     Em    D      C      Em         Em     x4      x4       x4              
e|---0-----2------0------0----|--|--0--|--------|--------|--------|-----0---|
B|---0-----3------1------0----|--|--0--|-12-----|-10-----|-13-----|-12--0---|
G|---0-----2------0------0----|X4|--0--|---12---|---11---|---14---|-12--0---|
D|---2-----0------2------2----|--|--2--|-----14-|-----12-|-----16-|-----2---|
A|---2------------3------2----|--|--2--|--------|--------|--------|-----2---|
E|---0-------------------0----|--|--0--|--------|--------|--------|-----0---|
Tap to rate this tab
# A B C D E F G H I J K L M N O P Q R S T U V W X Y Z