Song name
# A B C D E F G H I J K L M N O P Q R S T U V W X Y Z

Biffy Clyro - Watch tab

-------------------------------------------------------------------------------
                             WATCH - Biffy Clyro
-------------------------------------------------------------------------------
Tabbed by: merkinball15

This is tabbed by ear but I'm pretty sure this is 100% accurate.  Some of the 
strumming patterns are more complex than what is tabbed, but listen to the song
and you'll get the hang of it.

Tuning: Drop D (DADGBe)

Verse
e|-------------------------------0-0-0--0-0-0--------------------------------| x2
B|----0------------0-------------3-3-3--3-3-3--------------------------------|
G|------2-0---0------2-0---0-----2-2-2--2-2-2--------------------------------|
D|----------2---2--------2---2---0-0-0--0-0-0--------------------------------|
A|-------------------------------0-0-0--0-0-0--------------------------------|
D|--2--2-2-2-2-2-2--2-2-2-2-2-0--0-0-0--0-0-0--------------------------------|

e|--0-0-0--0-0-0--0-0-0--0~0-0-0-0-------------------------------------------|
B|--1-1-1--1-1-1--1-1-1--1/3-3-3-3-------------------------------------------|
G|--2-2-2--2-2-2--0-0-0--0~0-0-0-0-------------------------------------------|
D|--2-2-2--2-2-2--2-2-2--2/4-4-4-4-------------------------------------------|
A|--0-0-0--0-0-0--3-3-3--3/5-5-5-5-------------------------------------------|
D|---------------------------------------------------------------------------|

Pre-chorus
e|----------------3-3-3--3-3-3--0-0-0--0-0-0--0-0-0--0-0-0-------------------|
B|--3-3-3--3-3-3--1-1-1--1-1-1--3-3-3--3-3-3--0-0-0--0-0-0-------------------|
G|--0-0-0--0-0-0--0-0-0--0-0-0--2-2-2--2-2-2--0-0-0--0-0-0-------------------|
D|--0-0-0--0-0-0--2-2-2--2-2-2--0-0-0--0-0-0--x-x-x--x-x-x-------------------|
A|--x-x-x--x-x-x--3-3-3--3-3-3--0-0-0--0-0-0--2-2-2--2-2-2-------------------|
D|--5-5-5--5-5-5----------------0-0-0--0-0-0--2-2-2--2-2-2-------------------|

Chorus
e|--xxxx-3-2-3--2-xxxx-3-2-3--2-xxxx-3-2-0--23-xxxx-5-5-5--55---------------|
B|--xxxx-1-1-1--1-xxxx-1-1-1--1-xxxx-0-0-0--00-xxxx-3-3-3--33---------------|
G|--xxxx-2-2-2--2-xxxx-0-0-0--0-xxxx-0-0-0--00-xxxx-2-2-2--22---------------|
D|--xxxx-2-2-2--2-xxxx-x-x-x--x-xxxx-x-x-x--xx-xxxx-0-0-0--00---------------|
A|--xxxx-0-0-0--0-xxxx-3-3-3--3-xxxx-2-2-2--22-xxxx-0-0-0--00---------------|
D|--xxxx----------xxxx----------xxxx-2-2-2--22-xxxx-0-0-0--00---------------|

Verse
Pre-chorus
Chorus

Bridge
e|---------------------------------------------------------------------------|
B|---5b-0--0--------5b-0----3~-----------------------------------------------|
G|--------/4h5-0-0-------/5---4----------------------------------------------|
D|--2----------5-4-2---------------------------------------------------------|
A|--2--------------2---------------------------------------------------------|
D|--2--------------2---------------------------------------------------------|

e|--2-2-2--2-3-0-2----3-2-0--------3-2-0-------------------------------------|
B|--3-3-3--3-3-3-3--1-1-1-1-3-3--1-1-1-1-3-3--0-8-7-5-0-0--0-8-7-5-0-0-------|
G|--2-2-2--2-2-2-2--0-0-0-0-0-0--0-0-0-0-0-0--0-0-0-0-0-0--0-0-0-0-0-0-------|
D|--0-0-0--0-0-0-0--x-x-x-x-x-x--x-x-x-x-x-x--0-0-0-0-0-0--0-0-0-0-0-0-------|
A|--0-0-0--0-0-0-0--3-3-3-3-3-3--3-3-3-3-3-3--x-x-x-x-x-x--x-x-x-x-x-x-------|
D|--0-0-0--0-0-0-0----------------------------5-5-5-5-5-5--5-5-5-5-5-5-------|

e|---------------------------------------------------------------------------|
B|---5b-0--0--------5b-0----3~-----------------------------------------------|
G|--------/4h5-0-0-------/5---4----------------------------------------------|
D|--2----------5-4-2---------------------------------------------------------|
A|--2--------------2---------------------------------------------------------|
D|--2--------------2---------------------------------------------------------|

e|--2-2-2--2-3-0-2----3-2-0--------3-2-0-------------------------------------|
B|--3-3-3--3-3-3-3--1-1-1-1-3-3--1-1-1-1-3-3--0-8-7-5-0-0--0-8-7-5-0-0-------|
G|--2-2-2--2-2-2-2--0-0-0-0-0-0--0-0-0-0-0-0--0-0-0-0-0-0--0-0-0-0-0-0-------|
D|--0-0-0--0-0-0-0--x-x-x-x-x-x--x-x-x-x-x-x--0-0-0-0-0-0--0-0-0-0-0-0-------|
A|--0-0-0--0-0-0-0--3-3-3-3-3-3--3-3-3-3-3-3--x-x-x-x-x-x--x-x-x-x-x-x-------|
D|--0-0-0--0-0-0-0----------------------------5-5-5-5-5-5--5-5-5-5-5-5-------|

Chorus

Outro
e|---------------------------------------------------------------------------| 
B|----0------------0---------------------------------------------------------|
G|------2-0---0------2-0---2----2-0---0------2-0---0-2-----------------------|
D|----------2---2--------2---2------4---4--4-----4------4--------------------|
A|---------------------------------------------------------------------------|
D|--2--2-2-2-2-2-2--2-2-2-2-2-0--0-0-0-0-0--0--0-0-0-0-0---------------------|

e|---------------------------------------------0-0-0-------------------------| 
B|----0------------0---------------------------3-3-3-------------------------|
G|------2-0---0------2-0---2----2-0---0--------2-2-2-------------------------|
D|----------2---2--------2---2------4---4--4---4-4-4-------------------------|
A|---------------------------------------------0-0-0-------------------------|
D|--2--2-2-2-2-2-2--2-2-2-2-2-0--0-0-0-0-0--0--0-0-0-------------------------|

For the outro Simon sorta gets sloppy and strums an Em and the weird D chord
that you end on, so instead of tabbing out all the strings he's hitting while 
strumming and picking, just play sloppily like him.  Enjoy!

************************************

| /   slide up
| \   slide down
| h   hammer-on
| p   pull-off
| ~   vibrato
| +   harmonic
| x   Mute note
| b   Bend
| pb  Pre-bend
| br  Bend release
| pbr Pre-bend release
| brb Bend release bend

************************************
Tap to rate this tab
# A B C D E F G H I J K L M N O P Q R S T U V W X Y Z