Song name
# A B C D E F G H I J K L M N O P Q R S T U V W X Y Z

Biffy Clyro - City Of Dreadful Night tab

------------------------------------------------------------------------------
                       City Of Dreadful Night - Biffy Clyro

------------------------------------------------------------------------------
Tabbed by: @St4rsAndShites (Twitter)


Tuning: C#G#C#F#A#D# (drop C#)

Order:
Intro                        (I)
Verse part 1                 (II)
Verse part 2                 (III)
instrumental bit part 1      (IV)
Instrumental bit part 2      (V)
Chorus part 1                (VI)
Chorus part 2                (VII)
Verse part 1                 (II)
Verse part 2                 (III)
Instrumental bit part 1      (IV)
Instrumental bit part 2      (V)
Chorus part 1                (VI)
Chorus Part 2                (VII)
Bridge                       (VIII)
Chorus part 2                (VII)
Instrumental bit part 1      (IV)

(I)
|---------------------------------------------------------------------------|
|---------------------------------------------------------------------------|
|---------------------------------------------------------------------------|
|-------------11-11---------------------------------------------------------|
|-------10-10-------10-10-------------3-3-0-0-----0-0-----------------------|
|-11-11-------------------11------------------5-5-----3---------------------|

|---------------------------------------------------------------------------|
|---------------------------------------------------------------------------|
|---------------------------------------------------------------------------|
|-------------------------11-11---------------------------------------------|
|-------------------10-10-------10-10-----------3-3-0-0----0-0--------------|
|-3/7---------11-11-------------------11/3--------------5-5----3/7----------|

(II)
|---------------------------------------------------------------------------|
|---------------------------------------------------------------------------|
|---------------------------------------------------------------------------|
|---------------------------11-11-------------------------------------------|
|---------------------10-10-------10-10------------------3-3-0-0----0-0-----|
|-7-7-7-7-7-7-7-11-11-------------------11/3-3-3-3-3-3-3---------5-5----3/7-|

(III)
|---------------------------------------------------------------------------|
|---------------------------------------------------------------------------|
|---------------------------------------------------------------------------|
|---------------------------------------------------------------------------|
|--------5-5-5-5-5-5-5-5------3-3-3-3-3-3-3-3--(x2)-------------------------|
|-3/5--------------------3--------------------------------------------------|

(IV)
|---------------------------------------------------------------------------|
|------5-------5------5-------5------5-------5-------5-------5--------------|
|----------7--------------7--------------7---------------7------------------|
|----------------0------0---0-----------------------------------------------|
|-0------0---0------------------8------8---8--------------------------------|
|----------------------------------------------9-------9---9----------------|

|---------------------------------------------------------------------------|
|------0-------0-------0-------0--------0-------0-----0-------0-------------|
|----------2---------------2----------------2-------------2-----------------|
|---------------------------------------------------------------------------|
|-0------0---0--------------------------------------------------------------|
|----------------5-------5---5---3--------3---3---0-----0---0---------------|

(V)
|---------------------------------------------------------------------------|
|-------5-5-5-5-5--3-----3----------5-5-5-5-5--3-----3----------------------|
|-------5-5-5-5-5--4-p2--2-p0-------5-5-5-5-5--4-p2--2-0-h2-p0--------------|
|---------------------------------------------------------------------------|
|-3----------------------------3--------------------------------------------|
|---------------------------------------------------------------------------|

|---------------------------------------------------------------------------|
|------5-5-5-5-5--3----3---------1-1-1-1-1--3---5-5-------------------------|
|------5-5-5-5-5--4-p2-2-p0------0-0-0-0-0--0---0-0-------------------------|
|-------------------------------------------0---0-0-------------------------|
|-3-------------------------------------------------------------------------|
|---------------------------3---------------5---5-5-------------------------|

|------------------8-7------------------------------------------------------|
|-----8---10---8-------8----------------------------------------------------|
|-7-9---------------------b7----(x4)----------------------------------------|
|---------------------------------------------------------------------------|
|---------------------------------------------------------------------------|
|---------------------------------------------------------------------------|

(VI)
|---------------------------------------------------------------------------|
|-5-5-5-5-5------5-5-5-5-5------6-6-6-6-6------6-6-6-6-6--------------------|
|-5-5-5-5-5------5-5-5-5-5------5-5-5-5-5------5-5-5-5-5--------------------|
|-x-x-x-x-x------x-x-x-x-x------x-x-x-x-x------x-x-x-x-x--------------------|
|-3-3-3-3-3------0-0-0-0-0------5-5-5-5-5------x-x-x-x-x--------------------|
|----------------------------------------------3-3-3-3-3--------------------|

(VII)
|----------------------------------------------------------------------------|
|----------------------------------------------------------------------------|
|-----6-6-7-7-9-9-9-9--9-----------------------------------------------------|
|-7---7-7-7-7-7-7-7-7--7---10---10-10-12-12-14-14-14-14---14-----------------|
|-7---7-7-7-7-7-7-7-7--7---10---10-10-10-10-10-10-10-10---10-----------------|
|-7---7-7-7-7-7-7-7-7--7---10---10-10-10-10-10-10-10-10---10-----------------|

|---------------------------------------------------------------------------|
|---------------------------------------------------------------------------|
|-----11-11-12-12-14-14-14-14---14---17---17-17-17-17-17-17-17-17-17--------|
|-0---0--0--0--0--0--0--0--0----0----15---15-15-15-15-15-15-15-15-15--------|
|-0---0--0--0--0--0--0--0--0----0----15---15-15-15-15-15-15-15-15-15--------|
|-0---0--0--0--0--0--0--0--0----0----15---15-15-15-15-15-15-15-15-15--------|

(VIII)
|---------------------------------------------------------------------------|
|---------------------------------------------------------------------------|
|-----9-9-9-9-9---------------------5-5-5-5-5--7--9-9-----------------------|
|-7---7-7-7-7-7--5--9-9-7--(x2)-3---3-3-3-3-3--5--5-5-----------------------|
|-7---7-7-7-7-7--5--5-5-5-------3---3-3-3-3-3--5--5-5--(x2)-----------------|
|-7---7-7-7-7-7--5--5-5-5-------3---3-3-3-3-3--5--5-5-----------------------|




************************************

| /   slide up
| \   slide down
| h   hammer-on
| p   pull-off
| ~   vibrato
| +   harmonic
| x   Mute note
| b   Bend
| pb  Pre-bend
| br  Bend release
| pbr Pre-bend release
| brb Bend release bend

************************************
Tap to rate this tab
# A B C D E F G H I J K L M N O P Q R S T U V W X Y Z