Song name
# A B C D E F G H I J K L M N O P Q R S T U V W X Y Z

Biffy Clyro - Milky tab

-----------------------------------------------------------------------------
                             Milky - Biffy Clyro
-----------------------------------------------------------------------------
Tabbed by: @St4rsAndShites (twitter)

Tuning: Drop C# (C#G#C#F#A#D#)

Order:
Intro (I)
Riff (II)
Heavy Bit (III)
Verse (IV)
Prechorus (V)
Chorus (VI)
Verse (IV)
Chorus (VI)
Riff (II)
Heavy Bit (III)
Riff (II)
Heavy Bit (II)

(I)
|---------------------------------------------------------------------------|
|---------------------------------------------------------------------------|
|----3-p0---0--------------------------------3-p0---0----3-p0---0-----------|
|---------3------0---0------0-----(repeat)--------3-----------3-------------|
|--------------5---4---3-h4---4---------------------------------------------|
|-5-----------------------------5-------------------------------------------|

(II)
|---------------------------------------------------------------------------|
|---------------------------------------------------------------------------|
|-----3-p0----------0-------------2-p0--------0--------------2-p0--------0--|
|-------------3-p0-----(x4)--------------3-p0---(x2)-----------------3p0----|
|----------------------------------------------------3-3-3-3------3-----(x2)|
|-5-5-------5---------------0-0-0------0------------------------------------|

(III)
|---------------------------------------------------------------------------|
|---------------------------------------------------------------------------|
|---------------------------------------------------------------------------|
|-12-0-12-0-0-0-12-0-0-12-0-0-12--------------------------------------------|
|-12-0-12-0-0-0-12-0-0-12-0-0-12--(repeat)----------------------------------|
|-12-0-12-0-0-0-12-0-0-12-0-0-12--------------------------------------------|

(IV)
|---------------------------------------------------------------------------|
|---------------------------------------------------------------------------|
|---------------------------------------------------------------------------|
|-5-5-5-5-5-5-/8--5------3-3-3-3-3-3-3-/10---5-5-5-5-5-5-/8--5--------------|
|-5-5-5-5-5-5-/8--5-(x2)-3-3-3-3-3-3-3-/10---5-5-5-5-5-5-/8--5--------------|
|-5-5-5-5-5-5-/8--5------3-3-3-3-3-3-3-/10---5-5-5-5-5-5-/8--5--------------|

(V)
|---------------------------------------------------------------------------|
|---------------------------------------------------------------------------|
|---------------------------------------------------------------------------|
|8-8-8-8-8-8-10-10-10-10-10-10-13-13-13-12-12-12-5-5-5-8p5-8p5-8p5-5-5-5-5-5|
|8-8-8-8-8-8-10-10-10-10-10-10-13-13-13-12-12-12-5-5-5-5---5---5---5-5-5-5-5|
|8-8-8-8-8-8-10-10-10-10-10-10-13-13-13-12-12-12-5-5-5-5---5---5---5-5-5-5-5|
 pm

(VI) (6 beats) (6 beats) (6 beats) (6 beats) (6 beats) (6 beats)
|-3-----------3---------2---------3---------5---------3---------------------|
|-3-----------3---------3---------3---------3---------1---------------------|
|-0-----------0---------2---------0---------2---------0---------------------|
|-x-----------x---------0---------2---------0---------3---------------------|
|-3-----------5---------0-------------------0-------------------------------|
|-------------5-------------------------------------------------------------|

************************************

| /   slide up
| \   slide down
| h   hammer-on
| p   pull-off
| ~   vibrato
| +   harmonic
| x   Mute note
| b   Bend
| pb  Pre-bend
| br  Bend release
| pbr Pre-bend release
| brb Bend release bend

************************************
Tap to rate this tab
 
# A B C D E F G H I J K L M N O P Q R S T U V W X Y Z