Song name
# A B C D E F G H I J K L M N O P Q R S T U V W X Y Z

Biffy Clyro - 9 15ths tab

Biffy Clyro - 9/15ths

From the album: Puzzle

Tuning: Drop C


I'm 99.9% sure this is how Simon plays it (live, anyhow).

The intro violin is at the bottom.

I've tried to tab out the rhythm, because it's difficult to figure it out alone, but there could be 
a few mistakes.

This song is really fun to play, so enjoy!


Intro

d|-----------------------------------------------------------|
A|-----------------------------------------------------------|
F|-----------10----------------------10------------------2---|
C|---------------------------------------------------0-------|
G|--12----12----12----12----12----12----12----12\--4---4-----|
C|-----12----------12----12----12----------12----------------|

d|--------------------------------------------|
A|--------------------------------------------|
F|--------3---------------3---------------2---|
C|------------------------------------0-------|
G|----5-------5---5---5-------5---5-----------|
C|--5---5---5---5---5---5---5---5---0---0-----|

Play twice before vocals


Verse - 'We're on a hellslide, help us...'

d|----------------------------------------------------------------------------------|
A|----------------------------------------------------------------------------------|
F|-----------10----------------------10------------------2---------------2----------|
C|---------------------------------------------------0-------0---0---0-------0---0--|
G|--12----12----12----12----12----12----12----12\--4---4---4---4---4---4---4---4----|
C|-----12----------12----12----12----------12---------------------------------------|

d|-------------------------------------------------------------------|
A|-------------------------------------------------------------------|
F|--------3---------------3---------------2---------------2----------|
C|------------------------------------0-------0---0---0-------0---0--|
G|----5-------5---5---5-------5---5----------------------------------|
C|--5---5---5---5---5---5---5---5---0---0---0---0---0---0---0---0----|

Play twice before chords


Verse 2

d|-------------------------------------------------------------------------------------|
A|-------------------------------------------------------------------------------------|
F|--10--10-10-10-10-10--10-10-10-10-10-10--10-10-10\---2--2-2--2-2-2-2-2-2-2-2-2--2-2--|
C|-------------------------------------------------------------------------------------|
G|--12--12-12-12-12-12--12-12-12-12-12-12--12-12-12\---4--4-4--4-4-4-4-4-4-4-4-4--4-4--|
C|--12--12-12-12-12-12--12-12-12-12-12-12--12-12-12\-----------------------------------|

d|----------------------------------------------------------------------|
A|----------------------------------------------------------------------|
F|--3--3-3-3-3-3--3-3-3-3-3-3--3-3-3\---2--2-2--2-2-2-2-2-2-2-2-2--2-2--|
C|--------------------------------------0--0-0--0-0-0-0-0-0-0-0-0--0-0--|
G|--5--5-5-5-5-5--5-5-5-5-5-5--5-5-5\---0--0-0--0-0-0-0-0-0-0-0-0--0-0--|
C|--5--5-5-5-5-5--5-5-5-5-5-5--5-5-5\---0--0-0--0-0-0-0-0-0-0-0-0--0-0--|

d|-------------------------------------------------------------------------------------|
A|-------------------------------------------------------------------------------------|
F|--10--10-10-10-10-10--10-10-10-10-10-10--10-10-10\---2--2-2--2-2-2-2-2-2-2-2-2--2-2--|
C|-------------------------------------------------------------------------------------|
G|--12--12-12-12-12-12--12-12-12-12-12-12--12-12-12\---4--4-4--4-4-4-4-4-4-4-4-4--4-4--|
C|--12--12-12-12-12-12--12-12-12-12-12-12--12-12-12\-----------------------------------|

d|-----------------------------------------|
A|-----------------------------------------|
F|--3--3-3-3-3-3--3-3-3-3-3-3--3-3-3\---2--|
C|--------------------------------------0--|
G|--5--5-5-5-5-5--5-5-5-5-5-5--5-5-5\---0--|
C|--5--5-5-5-5-5--5-5-5-5-5-5--5-5-5\---0--|


Interlude

d|------------------------------------------------|
A|------------------------------------------------|
F|--14--14-14--14-14-14-14-14-14-14-14-14--14-14--|
C|--12--12-12--12-12-12-12-12-12-12-12-12--12-12--|
G|------------------------------------------------|
C|------------------------------------------------|


'Are you irrelevant?...'

d|---------------------|
A|---------------------|
F|--12---14---10---14--| Strum as fast
C|--10---15---12---15--| as you can
G|--10---12---8----12--|
C|--10---12---8----12--|


'Are you an elephant?...'

d|-----------------------------------------|
A|-----------------------------------------|
F|--12--------14--------10--------12-------| (Strum 16
C|--10--------15--------12--------10-------|  times)
G|--10--x16---12--x16---8---x16---10--x16--|
C|--10--------12--------8---------10-------|


Back to verse chords

d|-------------------------------------------------------------------------------------|
A|-------------------------------------------------------------------------------------|
F|--10--10-10-10-10-10--10-10-10-10-10-10--10-10-10\---2--2-2--2-2-2-2-2-2-2-2-2--2-2--|
C|-------------------------------------------------------------------------------------|
G|--12--12-12-12-12-12--12-12-12-12-12-12--12-12-12\---4--4-4--4-4-4-4-4-4-4-4-4--4-4--|
C|--12--12-12-12-12-12--12-12-12-12-12-12--12-12-12\-----------------------------------|

d|----------------------------------------------------------------------|
A|----------------------------------------------------------------------|
F|--3--3-3-3-3-3--3-3-3-3-3-3--3-3-3\---2--2-2--2-2-2-2-2-2-2-2-2--2-2--|
C|--------------------------------------0--0-0--0-0-0-0-0-0-0-0-0--0-0--|
G|--5--5-5-5-5-5--5-5-5-5-5-5--5-5-5\---0--0-0--0-0-0-0-0-0-0-0-0--0-0--|
C|--5--5-5-5-5-5--5-5-5-5-5-5--5-5-5\---0--0-0--0-0-0-0-0-0-0-0-0--0-0--|


End on

d|--------------|
A|--------------|
F|--2-----------|
C|--0---12-12\--|
G|--0---12-12\--|
C|--0---12-12\--|


~VIOLIN~

d|--------------------------------|
A|--18\10/15/17-------------------|
F|----------------15\12/19\10/14--|
C|--------------------------------|
G|--------------------------------|
C|--------------------------------|

d|--17\13/17\15\12---10/13/17/18\17--|
A|-----------------------------------|
F|-----------------------------------|
C|-----------------------------------|
G|-----------------------------------|
C|-----------------------------------|


I used this cover;
-------------------------------------------
https://www.youtube.com/watch?v=9KXGoJfklZQ
-------------------------------------------

And this live video;
-------------------------------------------
https://www.youtube.com/watch?v=khUCWlgo7Fk
-------------------------------------------

As reference.

And my email;
---------------------------
capt.spillage@hotmail.co.uk
---------------------------
Tap to rate this tab
 
# A B C D E F G H I J K L M N O P Q R S T U V W X Y Z