Song name
# A B C D E F G H I J K L M N O P Q R S T U V W X Y Z

Biffy Clyro - The Atrocity tab

--------------------------------------------------------------
        The Atrocity - Biffy Clyro
--------------------------------------------------------------

Tabbed by: Tom Rowell (Trowzaa)
Song name: The Atrocity
Artist: Biffy Clyro
Album: Infinity Land
Tuning: Standard (EADGBe)

Piano intro
e|---------------5-3---------|
B|-1-3----1-3-------------3--|
G|---------------------------|
D|---0------0----3--------0--|
A|-1------1--------3----1----|
E|---------------------------|

Verse 1
"I don't wanna die..."
e|---------------5-3----5-3--|
B|-1-3----1-3----------------|
G|---------------------------|
D|---0------0----3------3----|
A|-1------1--------3------3--|
E|---------------------------|

"We're looking through a stain glass genocide"
e|------------1~------------1~--|
B|---------3~-------------3~----|
G|-----3-2~-----------3-2~------|
D|---3--------------3-----------|
A|-1--------------1-------------|
E|------------------------------|

Verse 2
"I don't wanna die..."
e|---------------5-3----5-3--|
B|-1-3----1-3----------------|
G|---------------------------|
D|---0------0----3------3----|
A|-1------1--------3------3--|
E|---------------------------|

"Memories of a perfect time"
e|------------1~------------1~--|
B|---------3~-------------3~----|
G|-----3-2~-----------3-2~------|
D|---3--------------3-----------|
A|-1--------------1-------------|
E|------------------------------|

Guitar comes in now
Verse 3
"We dream of nothing..."
e|-0---0--0-0-0---------0---0--0-0-0---------|
B|-3---3--3-3-3---------3---3--3-3-3-6--6-6--|
G|-2---2--2-2-2-5--5-5--2---2--2-2-2-5--5-5--|
D|-0---0--0-0-0-5--5-5--0---0--0-0-0-3--3-3--|
A|--------------3--3-3-----------------------|
E|-------------------------------------------|

"We dream of discovering..."
e|-0---0--0-0-0---------0---0--0-0-0-0--0-0--|
B|--------------6--6-6-----------------------|
G|-5---5--5-5-5-5--5-5--5---5--5-5-5-5--5-5--|
D|-5---5--5-5-5-3--3-3--5---5--5-5-5-5--5-5--|
A|-3---3--3-3-3---------3---5--3-3-3-3--3-3--|
E|-------------------------------------------|

"To the answers that will seal our pale faces"
e|-1---1--1-1-1-1--1-1--1---1--1-1-1-0--0-0--|
B|-------------------------------------------|
G|-3---3--3-3-3-3--3-3--3---3--3-3-3-5--5-5--|
D|-3---3--3-3-3-3--3-3--3---3--3-3-3-5--5-5--|
A|-1---1--1-1-1-1--1-1--1---1--1-1-1-3--3-3--|
E|-------------------------------------------|

Verse 4
"That can't happen now..."
e|-0---0--0-0-0---------0---0--0-0-0---------|
B|-3---3--3-3-3---------3---3--3-3-3-6--6-6--|
G|-2---2--2-2-2-5--5-5--2---2--2-2-2-5--5-5--|
D|-0---0--0-0-0-5--5-5--0---0--0-0-0-3--3-3--|
A|--------------3--3-3-----------------------|
E|-------------------------------------------|

"Will we meet again?..."
e|-0---0--0-0-0---------0---0--0-0-0-0--0-0--|
B|--------------6--6-6-----------------------|
G|-5---5--5-5-5-5--5-5--5---5--5-5-5-5--5-5--|
D|-5---5--5-5-5-3--3-3--5---5--5-5-5-5--5-5--|
A|-3---3--3-3-3---------3---5--3-3-3-3--3-3--|
E|-------------------------------------------|

"Even if we pass you on your way out"
e|-1---1--1-1-1-1--1-1--1---1--1-1-1-0--0-0--|
B|-------------------------------------------|
G|-3---3--3-3-3-3--3-3--3---3--3-3-3-5--5-5--|
D|-3---3--3-3-3-3--3-3--3---3--3-3-3-5--5-5--|
A|-1---1--1-1-1-1--1-1--1---1--1-1-1-3--3-3--|
E|-------------------------------------------|

Interlude

e|-0----1-0------0----------3--3-|
B|-3------3----6--------3--------|
G|-2----3-2----5-5------2---5--5-|
D|-0----3-0----3-5----3-0---5--5-|
A|------1--------3----1-----3----|
E|-----------------------------3-|

Verse 5
"I don't wanna die"
e|-0---0--0-0-0-2--2-2--0---0--0-0-0-0--0-0--|
B|-0---0--0-0-0-3--3-3--0---0--0-0-0-1--1-1--|
G|-0---0--0-0-0-2--2-2--0---0--0-0-0-0--0-0--|
D|-2---2--2-2-2-0--0-0--2---2--2-2-2-2--2-2--|
A|-2---2--2-2-2---------2---2--2-2-2-3--3-3--|
E|-0---0--0-0-0---------0---0--0-0-0---------|

"We can live forever"
e|-0---0--0-0-0-0--0-0--2---2--3-3p2-2-0--0-0--|
B|-0---0--0-0-0-0--0-0--3---3--3-3---3-1--1-1--|
G|-0---0--0-0-0-0--0-0--2---2--2-2---2-0--0-0--|
D|-2---2--2-2-2-2--2-2--0---0--0-0---0-2--2-2--|
A|-2---2--2-2-2-2--2-2-----------------3--3-3--|
E|-0---0--0-0-0-0--0-0-------------------------|

Verse 6
"I don't wanna die"
e|-0---0--0-0-0-2--2-2--0---0--0-0-0-0--0-0--|
B|-0---0--0-0-0-3--3-3--0---0--0-0-0-1--1-1--|
G|-0---0--0-0-0-2--2-2--0---0--0-0-0-0--0-0--|
D|-2---2--2-2-2-0--0-0--2---2--2-2-2-2--2-2--|
A|-2---2--2-2-2---------2---2--2-2-2-3--3-3--|
E|-0---0--0-0-0---------0---0--0-0-0---------|

"We can live forever"
e|-0---0--0-0-0-0--0-0--2---2--3-3p2-2-0--0-0--|
B|-0---0--0-0-0-0--0-0--3---3--3-3---3-1--1-1--|
G|-0---0--0-0-0-0--0-0--2---2--2-2---2-0--0-0--|
D|-2---2--2-2-2-2--2-2--0---0--0-0---0-2--2-2--|
A|-2---2--2-2-2-2--2-2-----------------3--3-3--|
E|-0---0--0-0-0-0--0-0-------------------------|

Outro
Rhythm guitar plays: (5 bars long)
e|-0---0--0-0-0-2--2-2--0---0--0-0-0-0--0-0--|
B|-0---0--0-0-0-3--3-3--0---0--0-0-0-1--1-1--|
G|-0---0--0-0-0-2--2-2--0---0--0-0-0-0--0-0--|
D|-2---2--2-2-2-0--0-0--2---2--2-2-2-2--2-2--|
A|-2---2--2-2-2---------2---2--2-2-2-3--3-3--|
E|-0---0--0-0-0---------0---0--0-0-0---------|

e|-0---0--0-0-0-0--0-0--2---2--3-3p2-2--3-3p2-2--3-3p2-2-0--0-0--|
B|-0---0--0-0-0-0--0-0--3---3--3-3---3--3-3---3--3-3---3-1--1-1--|
G|-0---0--0-0-0-0--0-0--2---2--2-2---2--2-2---2--2-2---2-0--0-0--|
D|-2---2--2-2-2-2--2-2--0---0--0-0---0--0-0---0--0-0---0-2--2-2--|
A|-2---2--2-2-2-2--2-2-----------------------------------3--3-3--|
E|-0---0--0-0-0-0--0-0-------------------------------------------| All x2

The part in the background is

e|-7-----7-----------7-----7-----------7------7-----7---------------------------7-----------------------|
B|---8-----8---10------8-----8---10------8------8-----8-10-------10-------10------10----10-------10-----|
G|-----9-----9----11-----9-----9----11------9-----9--------11-------11-------11------11----11-------11--|
D|------------------------------------------------------------12-------12---------------------12--------|
A|------------------------------------------------------------------------------------------------------|
E|------------------------------------------------------------------------------------------------------| x2

End on a A7

e|-0-|
B|-2-|
G|-0-|
D|-2-|
A|-0-|
E|---|
Tap to rate this tab
# A B C D E F G H I J K L M N O P Q R S T U V W X Y Z