Song name
# A B C D E F G H I J K L M N O P Q R S T U V W X Y Z

Biffy Clyro - The Ideal Height tab

BIFFY CLYRO-THE IDEAL HEIGHT-THE VERTIGO OF BLISS
Tabbed by:Frusciante_50
Drop D Tuning

Note: /=slide up  \=slide down   h=hammer on   p=pull off

Intro:

e|-7p0--7--7p0--7--7p0--7---7--10--7---8p0---8---8p0---8---8p0---8---8-12--8|
B|------------------------------------10p0--10--10p0--10--10p0--10--10-10-10|
G|--------------------------------------------------------------------------|
D|--------------------------------------------------------------------------|
A|--------------------------------------------------------------------------|
D|--------------------------------------------------------------------------|

e|-8p0--8--8p0--8--8p0--8--8--12--8----7p0--7--7p0--7--7p0--7--7--10--7-----|
B|-8p0--8--8p0--8--8p0--8--8--8---8----8p0--8--8p0--8--8p0--8--8---8--8-----|
G|--------------------------------------------------------------------------|
D|--------------------------------------------------------------------------|
A|--------------------------------------------------------------------------|
D|--------------------------------------------------------------------------|

e|-7p0--7--7p0--7--7p0--7--7--10---8----------------------------------------|
B|-8p0--8--8p0--8--8p0--8--8------------------------------------------------|
G|--------------------------------------------------------------------------|
D|--------------------------------------------------------------------------|
A|--------------------------------------------------------------------------|
D|--------------------------------------------------------------------------|

Before verse:

e|----------------------7/19|
B|--------12\5--------------|
G|-9------------9-----------|
D|-7-(x13)------7-(x13)-----|
A|-7------------7-----------|
D|-7------------7-----------|

Verse:

e|-------------------------------------------------|
B|---------12----------12\5----------12---------12-|
G|-9-----------9-------------9-----------9---------|
D|-7-(x13)-----7-(x13)-------7-(x13)-----7-(x13)---|
A|-7-----------7-------------7-----------7---------|
D|-7-----------7-------------7-----------7---------|

Pre-Chorus:

e|-7------------------7---------------|
B|-8-(x7)-------------8-(x7)--------5-|
G|-0---------7p5-7-7--0------7p5-7--5-|
D|-9---------7-7-7-7--9------7-7-7--7-|
A|------------------------------------|
D|------------------------------------|

Chorus:
e|-------------------7-7-8-7--7--7--7--7--7--7--7--7-|Repeat second part of 
B|-------------------8-8-8-8--8--8--8--8--8--8--8--8-|chorus
G|-9--------5--------0-0-0-0--0--0--0--0--0--0--0--0-|
D|-7-(x16)--3-(x16)----------10-10-10-10-10-10-10-10-|
A|-7--------3----------------------------------------|
D|-7--------3----------------------------------------|

Verse 2:

e|---------7/19-------------------------------------------------------------|
B|-----------------------12---------12\5---------12-------------------------|
G|-9-------------9-----------9------------9-----------9---------------------|
D|-7-(x13)-------7-(x13)-----7-(x13)------7-(x13)-----7-(x13)---------------|
A|-7-------------7-----------7------------7-----------7---------------------|
D|-7-------------7-----------7------------7-----------7---------------------|

Pre-chorus 2 (similar to first time, but begins with):

e|----------|
B|----------|
G|-7p5-7--7-|
D|-7-7-7--7-|
A|----------|
D|----------|

There is then another chorus, then:

e|-5-4-----------------|
B|-----3-5-------------|
G|---------2--4--------|
D|--------------2-0----|
A|------------------0--|
D|---------------------|

Distortion then kicks in:

e|--------------------------------------------------------------------------|
B|--------------------------------------------------------------------------|
G|-5--------9--------5------------------------------------------------------|
D|-3-(x16)--7-(x16)--3-(x16)--5-5-7-0-3-3-3-3-3-3-3-3-----------------------|
A|-3--------7--------3--------5-5-7-0-3-3-3-3-3-3-3-3-----------------------|
D|-3--------7--------3--------5-5-7-0-3-3-3-3-3-3-3-3-----------------------|
                               Play this part twice

Without distortion play:

e|--------------------------------------------------------------------------|
B|--------------------------------------------------------------------------|
G|---------------------------------9----------------------------------------|
D|---9h11---11p9---9h11---11p9---9-------11p9---9h11---11p9---9h11---11-----|
A|-0------0------0------0------0-------0------0------0------0------0----12--|
D|--------------------------------------------------------------------------|

e|--------------------------------------------------------------------------|
B|--------------------------------------------------------------------------|
G|------------------------------6-------------------------------------------|
D|---4h6---6p4---4h6---6p4---4--------6p4----4h6----6p4----4h6----6---------|
A|------------------------------------------------------------------7-------|
D|-0-----0-----0-----0-----0--------0------0------0------0------0-----------|

e|--------------------------------------------------------------------------|
B|--------------------------------------------------------------------------|
G|-----------------------------9--------------------------------------------|
D|---9h10---9h10---9h10---9h10---10--9------9h10----10h12---12h14-----------|
A|-0------0------0------0-----------------0-------0-------0-----------------|
D|--------------------------------------------------------------------------|

e|-----------------|
B|-----------------|
G|-----------------|
D|---14h15p14--10--|
A|-0---------------|
D|-----------------|

Then:

e|--------------------------------------------------------------------------|
B|--------------------------------------------------------------------------|
G|-9-9---9-9-9---9-9-9---9-9-9---9-9-9---9-9-9--4-4-4----4-4-4--------------|
D|-7-7---7-7-7---7-7-7---7-7-7---7-7-7---7-7-7--x-x-x----x-x-x--------------|
A|-7-7---7-7-7---7-7-7---7-7-7---8-7-7---7-7-7--2-2-2----2-2-2--------------|
D|-7-7---7-7-7---7-7-7---7-7-7---7-7-7---7-7-7------------------------------|

With Distortion:

e|--------------------------------------------------------------------------|
B|--------------------------------------------------------------------------|
G|-5--5--5---7--7-----7----------5----------7----------5--------------------|
D|-3--3--3---5--5-----5-(x16)----3-(x16)----5-(x16)----3-(x16)--------------|
A|-3--3--3---5--5-----5----------3----------5----------3--------------------|
D|--------------------------------------------------------------------------|

Play these chords:

e|----------------------|
B|----------------------|
G|-9-------5------------|
D|-7-(x16)-3-(x16)------|
A|-7-------3------------|
D|-7-------3------------|

Outro:

e|------------------------------------------|
B|------------------------------------------|
G|------------------------------------------|
D|-5--5---7-----0------3-3-3-3-3-3-3-3------|
A|-5--5---7-----0------3-3-3-3-3-3-3-3------|
D|-5--5---7-----0------3-3-3-3-3-3-3-3------|

End on:

e|-----|
B|-----|
G|-----|
D|--0--|
A|--0--|
D|--0--|


ENJOY!







Tap to rate this tab
 
# A B C D E F G H I J K L M N O P Q R S T U V W X Y Z