Song name
# A B C D E F G H I J K L M N O P Q R S T U V W X Y Z

Biffy Clyro - Glitter And Trauma tab

Note: This is the best Glitter and Trauma Tab on the net, a renewed version (Written 
by me) of the other Tabs for this song on Ultimate Guitar.
Please leave me feedback as I wish to write this as acurately as possible and would love 
help.
The tune is in Drop D, typical.
The time signatures also change frequently so look out for the notes I make.
Enjoy!

Intro: 4/4, Medium Clean
E|-----------12--14-------[repeat X6]------------|
B|--0--14--15------------------------------------|
G|-----------------------------------------------|
D|-----------------------------------------------|
A|-----------------------------------------------|
D|-----------------------------------------------|


E|-----------------------------------------------|
B|-----------------------------------------------|
G|--0--14--15------------------------------------|
D|-----------------------------------------------|
A|-----------------------------------------------|
D|----------------------12--12--12---------------|


Build-up: Heavy Distortion
E|-----------------------------------------------|
B|-----------------------------------------------|
G|-----------------------------------------------|
D|-0-12-0-12-0-12-0-12-0-12-0-12-0-12-0-12-------|
A|-0-12-0-12-0-12-0-12-0-12-0-12-0-12-0-12-------|
D|-0-12-0-12-0-12-0-12-0-12-0-12-0-12-0-12-------|


E|-----------------------------------------------|
B|-----------------------------------------------|
G|-----------------------------------------------|
D|-0-12-0-12-0-12-0-12-0-12-0-12-0-12-0-12-------|
A|-0-13-0-13-0-13-0-13-0-13-0-13-0-13-0-13-------|
D|-0-12-0-12-0-12-0-12-0-12-0-12-0-12-0-12-------|


E|-----------------------------------------------|
B|-----------------------------------------------|
G|-----------------------------------------------|
D|-0-12-0-12-0-12-0-12-0-12-0-12-0-12-0-12-------|
A|-0-15-0-15-0-15-0-15-0-15-0-15-0-15-0-15-------|
D|-0-12-0-12-0-12-0-12-0-12-0-12-0-12-0-12-------|


E|-----------------------------------------------|
B|-----------------------------------------*12---|
G|---12---12---12---12---12---12---12---12---*12-|
D|-0-12-0-12-0-12-0-12-0-12-0-12-0-12-0-12-------|
A|-0-12-0-12-0-12-0-12-0-12-0-12-0-12-0-12-------|
D|-0-12-0-12-0-12-0-12-0-12-0-12-0-12-0-12-------|


Verse: 7/4, Small Distortion
E|---------------------0--0------[repeat X10]----|
B|---------------------0--0----------------------|
G|---------------------3--3----------------------|
D|--4---4----------------------------------------|
A|--2---2-2-H3-P2-0------------------------------|
D|-----------------------------------------------|


Bridge: 4/4, Clean/ Flange
E|----0----------0---------------0-------0-0-----|
B|----0----------3-------------0---------3/10----|
G|----6----------4-----------0-----------2/9-----|
D|----7----------4---------4----------0----------|
A|--5-5----2-2-2-2-------5------------0----------|
D|--0-0----------------5--------------0----------|


E|----0----------0---------------0---------------|
B|----0----------3-------------0-----------------|
G|----6----------4-----------0-------------------|
D|----7----------4---------4---------------------|
A|--5-5----2-2-2-2-------5-----------------------|
D|--0-0----------------5-------------------------|


Chorus: Clean
E|------------------------------------------[X2]-|
B|-----------------------------------------------|
G|-----------------------------------------------|
D|-----------------------------------------------|
A|-----------------------------------------------|
D|--0-12-0-12-0-12-0-12-0-12-0-12-0-12-0-12------|


E|-------0----------------0----------------------|
B|-------3----------------3----------------------|
G|-------0----------------0----------------------|
D|-------0----------------0----------------------|
A|-----------------------------------------------|
D|--5--------------5-5---------------------------|


E|------------------------------------------[X2]-|
B|-----------------------------------------------|
G|-----------------------------------------------|
D|-----------------------------------------------|
A|-----------------------------------------------|
D|--0-12-0-12-0-12-0-12-0-12-0-12-0-12-0-12------|


E|-------0----------------0------------2--2------|
B|-------3----------------3------------0--0------|
G|-------0----------------0------------3--3------|
D|-------0----------------0----------------------|
A|-----------------------------------------------|
D|--4--------------4-4---------------------------|


Verse: 7/4, Small Distortion
E|---------------------0--0------[repeat x4]-----|
B|---------------------0--0----------------------|
G|---------------------3--3----------------------|
D|--4---4----------------------------------------|
A|--2---2-2H3P2-0--------------------------------|
D|-----------------------------------------------|


Bridge: 4/4, Clean/ Flange
E|----0----------0---------------0-------0-0-----|
B|----0----------3-------------0---------3/10----|
G|----6----------4-----------0-----------2/9-----|
D|----7----------4---------4----------0----------|
A|--5-5----2-2-2-2-------5------------0----------|
D|--0-0----------------5--------------0----------|


E|----0----------0---------------0---------------|
B|----0----------3-------------0-----------------|
G|----6----------4-----------0-------------------|
D|----7----------4---------4---------------------|
A|--5-5----2-2-2-2-------5-----------------------|
D|--0-0----------------5-------------------------|


Break: Medium Distortion
E|-----------------------------------------------|
B|-----------------------------------------------|
G|-----------------------------------------------|
D|--2-2-2-2-2-2-2-2---4-4-4-4-4-4-4-4------------|
A|--2-2-2-2-2-2-2-2---4-4-4-4-4-4-4-4------------|
D|--2-2-2-2-2-2-2-2---4-4-4-4-4-4-4-4------------|


E|-----------------------------------------------|
B|-----------------------------------------------|
G|--9--9--9--9--9--9--9--9---4-4-4-4-4-4-4-4-----|
D|--11-11-11-11-11-11-11-11--4-4-4-4-4-4-4-4-----|
A|--10-10-10-10-10-10-10-10--2-2-2-2-2-2-2-2-----|
D|-----------------------------------------------| [Break x3]


E|-----------------------------------------------|
B|-----------------------------------------------|
G|--12-----------15------------------------------|
D|--X---[X16]----X---[X16]---X-X-X-X-X-X-X-X-----|
A|--10-----------13----------X-X-X-X-X-X-X-X-----|
D|---------------------------X-X-X-X-X-X-X-X-----|


Chorus: Distortion
E|------------------------------------------[X2]-|
B|-----------------------------------------------|
G|-----------------------------------------------|
D|-0-12-0-12-0-12-0-12-0-12-0-12-0-12-0-12-------|
A|-0-12-0-12-0-12-0-12-0-12-0-12-0-12-0-12-------|
D|-0-12-0-12-0-12-0-12-0-12-0-12-0-12-0-12-------|


E|--------0-----------------0--------------------|
B|--------3-----------------3--------------------|
G|--------0-----------------0--------------------|
D|-5--5----------5---5-5-------------5-5-5-------|
A|-5--5----------5---5-5-------------5-5-5-------|
D|-5--5----------5---5-5-------------5-5-5-------|


E|------------------------------------------[X2]-|
B|-----------------------------------------------|
G|-----------------------------------------------|
D|-0-12-0-12-0-12-0-12-0-12-0-12-0-12-0-12-------|
A|-0-12-0-12-0-12-0-12-0-12-0-12-0-12-0-12-------|
D|-0-12-0-12-0-12-0-12-0-12-0-12-0-12-0-12-------|


E|--------0-----------------0--------------------|
B|--------3-----------------3--------------------|
G|--------0-----------------0--------------------|
D|-5--5----------5---5-5-------------5-5-5-------|
A|-5--5----------5---5-5-------------5-5-5-------|
D|-5--5----------5---5-5-------------5-5-5-------|


Breakdown: Heavy Distortion
E|-----------------------------------------------|
B|-----------------------------------------------|
G|-----------------------------------------------|
D|--3-0-7-0-3-0--------7-0-3-0-7-0----2----------|
A|--3-0-7-0-3-0--------7-0-3-0-7-0----2----------|
D|--3-0-7-0-3-0--------7-0-3-0-7-0----2----------|


Break: Distortion
E|-----------------------------------------------|
B|-----------------------------------------------|
G|--11-----------------9--9--9--9--9--9--9--9----|
D|--x---[X8]-----------11-11-11-11-11-11-11-11---|
A|--9------------------10-10-10-10-10-10-10-10---|
D|-----------------------------------------------|


E|-----------------------------------------------|
B|-----------------------------------------------|
G|--4-4-4-4-4-4-4-4-----12----------15-----------|
D|--4-4-4-4-4-4-4-4-----X---[X16]---X---[X16]----|
A|--2-2-2-2-2-2-2-2-----10----------13-----------|
D|-----------------------------------------------|


Chorus: Distortion
E|--------[Feedback]----------0--------0---------|
B|----------10-/-17-----------3--------3---------|
G|---------------X------------0--------0---------|
D|--0------------0-------5--5----5---5-----------|
A|--0------------0-------5--5----5---5-----------|
D|--0------------0-------5--5----5---5-----------|


E|------------------------------------------[X2]-|
B|-----------------------------------------------|
G|-----------------------------------------------|
D|-----------------------------------------------|
A|-----------------------------------------------|
D|--0-12-0-12-0-12-0-12-0-12-0-12-0-12-0-12------|


E|--------0-----------------0--------------------|
B|--------3-----------------3--------------------|
G|--------0-----------------0--------------------|
D|-5--5----------5---5-5-------------------------|
A|-5--5----------5---5-5-------------------------|
D|-5--5----------5---5-5-------------------------|


E|-----------------------------------------------|
B|-----------------------------------------------|
G|-----------------------------------------------|
D|-----------------------------------------------|
A|-----------------------------------------------|
D|-12-12-12-12\----------------------------------|


Breakdown: Heavy Distortion
E|-----------------------------------------------|
B|-----------------------------------------------|
G|-----------------------------------------------|
D|-3-0-7-0-3-0-7-0-3-0-7-0-3-0-7-0-3-0-7-0-3-0---|
A|-3-0-7-0-3-0-7-0-3-0-7-0-3-0-7-0-3-0-7-0-3-0---|
D|-3-0-7-0-3-0-7-0-3-0-7-0-3-0-7-0-3-0-7-0-3-0---| [Breakdown X2]


E|-----------------------------------------------|
B|-----------------------------------------------|
G|-----------------------------------------------|
D|--6-5-4-3-2------------------------------------|
A|--6-5-4-3-2------------------------------------|
D|--6-5-4-3-2------------------------------------|

/    Slide upwards
\    Slide downwards
X    Mute Note
H#   Hammer-On
P#   Pull-Off
*    Harmonic
Tap to rate this tab
# A B C D E F G H I J K L M N O P Q R S T U V W X Y Z