Song name
# A B C D E F G H I J K L M N O P Q R S T U V W X Y Z

Biffy Clyro - Semi Mental tab

Song: Semi-Mental
Artist: Biffy Clyro
Album: Puzzle

Tabbed by: Gary the Hann
Email: Ckyfan1@hotmail.com

Tuning: Drop D

Intro
e|----------------------------------|
B|----------------------------------|
G|----------------------------------|
D|--0--0--0--6666--000-000-0006666--|
A|--0--0--0--6666--000-000-0006666--|
D|--0--0--0--6666--000-000-0006666--|


Verse
e|-------------------------------------|
B|-------------------------------------|
G|-------------------------------------|
D|-------------------------------------|
A|-------------------------------------|
D|--00-000-000-06666--000-000-0006666--|


Pre-Chorus
e|-------------------------------------|
B|-------------------------------------|
G|-------------------------------------|
D|--3333333333333333-5555555555555555--|
A|--3333333333333333-5555555555555555--|
D|--3333333333333333-5555555555555555--|


Chorus
e|---------------------------------------|
B|---------------------------------------|
G|--22222222-55555555-99999999-77777777--|
D|--00000000-33333333-77777777-55555555--|
D|--00000000-33333333-77777777-55555555--|
D|--00000000-33333333-77777777-55555555--|


Bridge
e|-----------------------------------------------------|
B|-----------------------------------------------------|
G|-----------66666666-1010101010101010-12121212121212--|
D|--77777777-77777777-7-7-7-7-7-7-7-7--x-x-x-x-x-x-x---|
A|--77777777-44444444-8-8-8-8-8-8-8-8--10101010101010--|
D|--77777777-------------------------------------------|

e|-------------------------------------|
B|-------------------------------------|
G|-------------------------------------|
D|--5555555555555555-3333333333333333--|
A|--5555555555555555-3333333333333333--|
D|--5555555555555555-3333333333333333--|


Bridge Pt II
e|-------------------------|
B|--------------------3----|
G|--2-2-5-0-2-2---------4--|
D|--2-2-----2-2-3p2p0------|
A|--0-0-----0-0------------|
D|-------------------------|

e|------0-0~---------------0-0~------------|
B|------6-5~---------------6-5~------------|
G|--2-2-5-4~---------------5-4~------------|
D|--2-2-------22222222-0-0-------55555555--|
A|--0-0-------22222222-0-0-------55555555--|
D|------------22222222-0-0-------55555555--|

e|------0-0~-------------------0~-----------|
B|------6-5~-------------------5~-----------|
G|--2-2-5-4~---------------5p0-4~-----------|
D|--2-2-------22222222-0-0--------55555555--|
A|--0-0-------22222222-0-0--------55555555--|
D|------------22222222-0-0--------55555555--|


Final Chorus
e|-----------------------------------------------|
B|--33333333-66666666-1010101010101010-88888888--|
G|--22222222-55555555-9-9-9-9-9-9-9-9--77777777--|
D|--00000000-33333333-7-7-7-7-7-7-7-7--55555555--|
D|--00000000-33333333-7-7-7-7-7-7-7-7--55555555--|
D|--00000000-33333333-7-7-7-7-7-7-7-7--55555555--|


End On
e|----------|
B|--3~------|
G|--2~------|
D|--0~------|
D|--0~------|
D|--0~------|
Tap to rate this tab
 
# A B C D E F G H I J K L M N O P Q R S T U V W X Y Z