Guitaretab - guitar tabs
Song name
# A B C D E F G H I J K L M N O P Q R S T U V W X Y Z

Biffy Clyro - Saturday Superhouse tab

Biffy Clyro - Saturday Superhouse
Tabbed by: David H

Rather nice new single from the Scots

Intro
e|-00--0--0-0-----00-0-0--0-0-0----00-0-0--0-0-0----------------|
B|-55--5--5-5-----55-5-5--2-2-2----55-5-5--2-2-2----------------|
G|-66--6--6-6-----66-6-64b(6)(6)--66-6-64b(6)(6)--------------|
D|--------------44--4-4----------44--4-4------------------------|
A|--------------44--4-4----------44--4-4------------------------|
D|--------------44--4-4----------44--4-4------------------------|

Verse  - play twice
e|-----00-0-0--0-0-0----00-0-0--0-0-0----------------|
B|-----55-5-5--2-2-2----55-5-5--2-2-2----------------|
G|-----66-6-64b(6)(4)--66-6-64b(6)(6)--------------|
D|---44--4-4----------44--4-4------------------------|
A|---44--4-4----------44--4-4------------------------|
D|---44--4-4----------44--4-4------------------------|

e|------------------------------------------------|
B|------------------------------------------------|
G|-2--2-2-2-2-2-2-2------4--4-4-4-4-4-4-4---2-2-2-|
D|-0-0-0-0-0-0-0-0------4--4-4-4-4-4-4-4---2-2-2-|
A|-0-0-0-0-0-0-0-0------2--2-2-2-2-2-2-2---0-0-0-|
D|-0-0-0-0-0-0-0-0-------------------------------|
Listen to song for correct number of times

Chorus - open E not necessary but helps to keep bright tone with distortion
e|-----------------------0-0-0-0-0-0-0-------|
B|-----------------------x-x-x-x-x-x-x-------|        x2
G|-2-2-2-2-2--4-4-4-4-4--6-6-6-6-6-6-6-------|
D|-0-0-0-0-0--2-2-2-2-2--4-4-4-4-4-4-4-------|
A|-0-0-0-0-0--2-2-2-2-2--4-4-4-4-4-4-4-------|
D|-0-0-0-0-0--2-2-2-2-2--4-4-4-4-4-4-4-------|

then
e|-------------------------------------------------------------------|
B|-------------------------------------------------------------------|
G|-2-2-2-2-2--4-4-4-4-4--9-9-9-9-9--2-2-2-2-2--2-2-2-2---------------|
D|-0-0-0-0-0--2-2-2-2-2--7-7-7-7-7--0-0-0-0-0--0-0-0-0--2-2-2-2-2--4-|
A|-0-0-0-0-0--2-2-2-2-2--7-7-7-7-7--0-0-0-0-0--0-0-0-0--2-2-2-2-2--4-|
D|-0-0-0-0-0--2-2-2-2-2--7-7-7-7-7--0-0-0-0-0--0-0-0-0--2-2-2-2-2--4-|

Pre-verse
e|-00--0--0-0-|
B|-55--5--5-5-|
G|-66--6--6-6-|
D|------------|
A|------------|
D|------------|

Repeat Verse

Repeat Chorus
[ Tab from: http://www.guitaretab.com/b/biffy-clyro/85105.html ]
solo
e|----------------------------------------------------------------|
B|----------------------------------------------------------------|
G|---------4-6--4--------------4----------1---2-4--2-1------------|
D|-4--6-7---------7--6-4--6-7----4---2--4---------------4-2-------|
A|----------------------------------------------------------------|
D|----------------------------------------------------------------| x2

On 2nd time, another guitar plays with the bass part on top (live solo as well)
e|------------------------------------------------------------------|
B|------------------------------------------------------------------|
G|---------------------1-------------------------1-2-4--------------|
D|-444-2-444-2-444-2-4---4-2-444-2-444-2-444-2-4-------2h4-22h4p4--|
A|------------------------------------------------------------------|
D|------------------------------------------------------------------|

Pre-Chorus
e|----------------------------------00-0-0----------|
B|----------------------------------55-5-5----------|
G|----------------------------------66-6-6----------|
D|-6-4-6-0--6-4-6-0--6-4-6-4\-----------------------|
A|-6-4-6-0--6-4-6-0--6-4-6-4\-----------------------|
E|-6-4-6-0--6-4-6-0--6-4-6-4\-----------------------|

Repeat chorus x2

(End 1st chorus with just)
e|----------------|
B|----------------|
G|-6-6-6-6---etc--|
D|-4-4-4-4--------|
A|-4-4-4-4--------|
D|-4-4-4-4--------|
(The 2nd chorus has another very faint guitar part which I THINK uses something close to 
play around with these)
e|------------16-17--16-17------------------------------------------|
B|-17--17-17-----------------17/19-1917/19-19-17/19-1917/19-19----|
G|------------------------------------------------------------------|
D|-14--14-14--------------------------------------------------------|
A|------------------------------------------------------------------|
D|------------------------------------------------------------------|
(End the last chorus with)
e|-------------------------00-00--00--0----|
B|-------------------------55-55--55--5----|
G|-2-2-2-2-2--4-4-4-4-4----66-66--66--6----| x3
D|-0-0-0-0-0--2-2-2-2-2--44-44--44--44--4--|
A|-0-0-0-0-0--2-2-2-2-2--44-44--44--44--4--|
D|-0-0-0-0-0--2-2-2-2-2--44-44--44--44--4--|

Outro
e|---00--00--00--0------------------|
B|---55--55--55--5------------------|        x2
G|---66-66--66--6------------------|
D|-4--44--44--44--4-----------------|
A|-4--44--44--44--4-----------------|
D|-4--44--44--44--4-----------------|

e|-00--00--0-0---------------|
B|-55--55--5-5---------------|
G|-66--66-6-6---------------|
D|-------------------4--\1---|
A|-------------------4--\1---|
D|-------------------4--\1---|

Enjoy

Key
b (*) = bend to (note)
/ = slide up
\ = slide down
Related for Saturday Superhouse tab