Song name
# A B C D E F G H I J K L M N O P Q R S T U V W X Y Z

Biffy Clyro - Living Is A Problem Because Everything Dies tab

Intro - Orchestra

Verse  1 minute 42 secs in:
D||-------------------------|---------------------|-----------------------|
A||-------------------------|---------------------|-----------------------|
F||---------------------7---|-7--7--9----9--9--9--|--------------------7--|
C||-7--7--7--9----9--9--7---|-7--7--7----7--7--7--|-7--7--7--9---9--9--7--|
G||-0--0--0--0----0--0--0---|-0--0--0----0--0--0--|-0--0--0--0---0--0--0--|
C||-------------------------|---------------------|-----------------------|

D||----------------------|----------------------------|--------------------|
A||----------------------|----------------------------|--------------------|
F||---7--7--9----9--9--9-|-------------------------7--|-7--7--9--9--9--9--9|
C||---7--7--7----7--7--7-|-9--7--9--10--10--10--9--7--|-7--7--7--7--7--7--7|
G||---0--0--0----0--0--0-|-8--8--8--8---8---8---8--8--|-8--8--8--8--8--8--8|
C||----------------------|----------------------------|--------------------|




Interlude riff 2mins 05 secs

D||---------------------|-----------------|--------------------|
A||---------------------|-----------------|--------------------|
F||-------8--------0----|----8------------|----8---------0---5-|
C||-7--7----8--10-----7-|--7---8--10\--7--|-7-----8--10------5-|
G||-0--0--------------0-|--0-----------0--|-0----------------5-|
C||---------------------|-----------------|------------------0-|



Pre-Chorus
2.17

D||------------------------|-------------------------------|
A||------------------------|-------------------------------|
F||----------------------0-|-------------------------------|
C||-10-10-10-10-10-10-10-0-|-10-10-10--10--10--10--10--10--|
G||-8--8--8--0--7--7--7--0-|-7--7---7---7---7---7---7---7--|
C||------------------------|-7--7---7---7---7---7---7---7--|

D||-----------------------|--------------------------|
A||-----------------------|--------------------------|
F||-----------------------|--8--8--8--8--8--8--8--8--|
C||-10-8--8--10-10--8--8--|--8--8--8--8--8--8--8--8--|
G||--6-6--6---6--6--6--6--|--6--6--6--6--6--6--6--6--|
C||--6-6--6---6--6--6--6--|--------------------------|

Chorus 2.34
(both guitars tabbed here)

guitar one

D||-------------------|--------------------|-----------------------|
A||-------------------|--------------------|-----------------------|
F||-------0-------0---|-------0----------0-|---------0----------0--|
C||----5----5---5---5-|----5-----5----12---|----8---------8--------|
G||-3---------5-------|-6----------13------|-10---10---10----10----|
C||-------------------|--------------------|-----------------------|

D||-----------------------|-----------------------|-------------------|
A||-----------------------|-----------------------|-------------------|
F||----------0----------0-|-------0----------0----|-----0-------0-----|
C||-----8---------8-------|----5-----5-----5---5--|---5---5---5-----5-|
G||--10---10---10----10---|-5-----------5---------|-6-------6---------|
C||-----------------------|-----------------------|-------------------|


guitar two
                                                |This bit only on outro
D||------------------------|------------0--0--0-|---------------------|
A||------------------------|----0--0--0-0--0--0-|---------------------|
F||-------------0--0--0--0-|-0--0--0--0-0--0--0-|-0--0--0--0--0--0--0-|
C||-5--5--5--5--5--5--5--5-|-5--5--5--5-5--5--5-|-5--5--5--5--5--5----|
G||-3--3--3--3--3--3--3--3-|-3--3--3--3-3--3--3-|-3--3--3--3--3--2--1-|
C||------------------------|--------------------|---------------------|


verse
interlude
pre-chorus
chorus
verse
chorus
chorus and outro
Tap to rate this tab
# A B C D E F G H I J K L M N O P Q R S T U V W X Y Z