Guitaretab - guitar tabs
Song name
# A B C D E F G H I J K L M N O P Q R S T U V W X Y Z

Biffy Clyro - Miracle Of Survival tab

Biffy Clyro  Miracle of Survival
Tabbed by: David H

Tuning: Drop D

e|-------------5--------------------2--2-2---------------5---------|
B|-7--7-7---5-7-7-5--------7--7-7---3--3-3---7--7-7---5-7-7-5-------|
G|-6--6-6--6--------6\4/6--6--6-6---4--4-4---6--6-6--6--------6\4/6-|
D|-4--4-4------------------4--4-4---5--5-5---4--4-4-----------------|
A|-4--4-4------------------4--4-4---2--2-2---4--4-4-----------------|
D|-4--4-4------------------4--4-4---2--2-2---4--4-4-----------------|

e|-------------5-------------------------2--2-2--2--2-2-------------|
B|-7--7-7---5-7-7-5------7--7-7--7--7-7--3--3-3--3--3-3---7--7-7--7-|
G|-6--6-6--6-------6\4/6-6--6-6--6--6-6--4--4-4--4--4-4---6--6-6--6-|
D|-4--4-4----------------4--4-4--4--4-4--5--5-5--5--5-5---4--4-4--4-|
A|-4--4-4----------------4--4-4--4--4-4--2--2-2--2--2-2---4--4-4--4-|
D|-4--4-4----------------4--4-4--4--4-4--2--2-2--2--2-2---4--4-4--4-|

e|-----5-----------|
B|--5-7-7-5--------|
G|-6-------6\4/6---|
D|-----------------|
A|-----------------|
D|-----------------|

e|----0---0-------------------0----0----------------|
B|----5-----------------------5----5----------------|
G|-----4h6--66--444-4-4---------4h6--4h6-66--444-4-4|
D|-0-0-0----44--222-2-2---0-0------------44--222-2-2|
A|-0-0------44--222-2-2---0-0------------44--222-2-2|
D|-0-0------44--222-2-2---0-0------------44--222-2-2|
*top 3 strings loosely played, main emphasis on bass chords

e|-----0----0-------------------0----|
B|-----5----5-------------------5----|
G|-------4h6--4h6-66--444-4-4---6----|
D|-0-0------------44--222-2-2---0----|
A|-0-0------------44--222-2-2---0----|
D|-0-0------------44--222-2-2---0----|

e|-----5-----------|
B|--5-7-7-5--------|
G|-6-------6\4/6---|
D|-----------------|
A|-----------------|
D|-----------------|

e|-----------5------------------xx-2--2-2-2--2---------------5----------|
B|7--7-7--5-7-7-5--------7--7-7-xx-3--3-3--3--3--7--7-7---5-7-7-5-------|
G|6--6-6-6--------6\4/6--6--6-6-xx-4--4-4---4--4-6--6-6--6--------6\4/6-|
D|4--4-4-----------------4--4-4-xx-5--5-5--------4--4-4-----------------|
A|4--4-4-----------------4--4-4----2--2-2--------4--4-4-----------------|
D|4--4-4-----------------4--4-4----2--2-2--------4--4-4-----------------|

e|-------------5-------------------------2--2-2--2--2-2-------------|
B|-7--7-7---5-7-7-5------7--7-7--7--7-7--3--3-3--3--3-3---7--7-7--7-|
G|-6--6-6--6-------6\4/6-6--6-6--6--6-6--4--4-4--4--4-4---6--6-6--6-|
D|-4--4-4----------------4--4-4--4--4-4--5--5-5--5--5-5---4--4-4--4-|
A|-4--4-4----------------4--4-4--4--4-4--2--2-2--2--2-2---4--4-4--4-|
D|-4--4-4----------------4--4-4--4--4-4--2--2-2--2--2-2---4--4-4--4-|

e|-----5-----------|
B|--5-7-7-5--------|
G|-6-------6\4/6---|
D|-----------------|
A|-----------------|
D|-----------------|

e|----0---0-------------------0----0----------------|
B|----5-----------------------5----5----------------|
G|-----4h6--66--444-4-4---------4h6--4h6-66--444-4-4|
D|-0-0-0----44--222-2-2---0-0------------44--222-2-2|
A|-0-0------44--222-2-2---0-0------------44--222-2-2|
D|-0-0------44--222-2-2---0-0------------44--222-2-2|

e|-----0----0-------------------0----|
B|-----5----5-------------------5----|
G|-------4h6--4h6-66--444-4-4---6----|
D|-0-0------------44--222-2-2---0----|
A|-0-0------------44--222-2-2---0----|
D|-0-0------------44--222-2-2---0----|

e|-00-   -00--- |
B|-55-   -55--- |
G|-66-x8 -66-x4 |
D|-44-   -00--- |
A|-44-   -00--- |   x4
D|-44-   -00--- |

e|-00-xxx--0--66--xxx--66--22-xxx-2--00-xxx-00|
B|-55-xxx--5--77--xxx--77--44-xxx-4--44-xxx-44|  
G|-66-xxx--6--88--xxx--88--44-xxx-4--44-xxx-44|
D|--------------------------------------------|
A|--------------------------------------------|  x2
D|--------------------------------------------|

e|-00000000---------0------------|
B|-44444444------2/6-4-0---------|
G|-44444444-------------3b(4)r3--|
D|-------------------------------|
A|-------------------------------|
D|-------------------------------|

e|--------------------------------------------|
B|--------------------------------------------|
G|------6--------6------------4---------------|
D|-6666-6-666666-6-666---4444-4-444-----------|
A|-4444---444444---444---2222---222-----------|
D|------------------------------------3-4-0---|
 *Palm mute bass strings
[ Tab from: http://www.guitaretab.com/b/biffy-clyro/87701.html ]
e|---------------------------------------0-----------|
B|-----------------------------------2/6--4-0---------|
G|------6--------6---------------------------3b(4)r3-|
D|-8888-8-888888-8-888----44444444-------------------|
A|-6666---666666---666----22222222-------------------|
D|---------------------------------------------------|

e|---------------------------------|
B|----4------4---------------------|
G|---6--6---6--6-------------------|
D|--5--5---5--5----44444444------0-|
A|-4------4--------22222222------0-|
D|---------------------------3-4-0-|

e|-00-   -00--- |
B|-55-   -55--- |
G|-66-x8 -66-x4 |
D|-44-   -00--- |
A|-44-   -00--- |   x4
D|-44-   -00--- |

e|-00-xxx--0--66--xxx--66--22-xxx-2--00-xxx-00|
B|-55-xxx--5--77--xxx--77--44-xxx-4--44-xxx-44|  
G|-66-xxx--6--88--xxx--88--44-xxx-4--44-xxx-44|
D|--------------------------------------------|
A|--------------------------------------------|  x4
D|--------------------------------------------|

e|-00000000---|
B|-44444444---|
G|-44444444---|
D|------------|
A|------------|
D|------------|

e|---------------------|
B|---------------------|
G|-4444444----66-77777-|
D|-4444444-44-66-00000-|
A|-2222222-44-44-00000-| x2
D|---------44----00000-|

|Guitar 1
|e|------   ----   ----    ------ -|
|B|------   ----   ----    ------ -|
|G|-33---   ----   ----    ------ -|
|D|-11---x8 -00-x8 -77- x8 -22-x8 -|
|A|-11---   -00-   -77-    -22--- -|
|D|-11---   -00-   -77-    -22--- -| x2
|
|Guitar 2
|e|---------------------------------------------------|
|B|-77-66-------77-66--------77-55-------77-55--------|
|G|-------66----------66-----------77----------77-----|
|D|----------88----------88-----------77----------77--|
|A|---------------------------------------------------| 
|D|---------------------------------------------------|
|	                                                 }x2
|e|---------------------------------------------------|
|B|---------------------------------------------------|
|G|-77-66-------77-66---------------------------------|
|D|-------77----------77------77-66----66--77-66--66--|
|A|----------77----------77---------77----------77----|
|D|---------------------------------------------------|

|Guitar 1
|e|----   ----   ----   ----   ----   --|
|B|----   ----   ----   ----   ----   --|
|G|----   ----   ----   ----   ----   --|
|D|-55-   -11-   -33-   -55-   -00-   --|
|A|-55-x8 -11-x8 -33-x8 -55-x4 -00-x4 --|
|D|-55-   -11-   -33-   -55-   -00-   --| x2
|    (1st fret not 11th)
|Guitar 2
|e|-----------------|	
|B|-----------------|
|G|-3333-2222-------| x 7 
|D|-----------------|
|A|-----------------|
|D|-----------------|
|
|e|---------------------------|
|B|---------------------------|
|G|---------------------------|
|D|-3333-2222-00000000--------| 
|A|---------------------------|
|D|--------------------------|

|Guitar 1
|e|------   ----   ----    ------ -|
|B|------   ----   ----    ------ -|
|G|-33---   ----   ----    ------ -|
|D|-11---x8 -00-x8 -77- x8 -22-x8 -|
|A|-11---   -00-   -77-    -22--- -|
|D|-11---   -00-   -77-    -22--- -| x2
|
|Guitar 2
|e|---------------------------------------------------|
|B|-77-66-------77-66--------77-55-------77-55--------|
|G|-------66----------66-----------77----------77-----|
|D|----------88----------88-----------77----------77--|
|A|---------------------------------------------------| 
|D|---------------------------------------------------|
|	                                                }x2
|e|---------------------------------------------------|
|B|---------------------------------------------------|
|G|-77-66-------77-66---------------------------------|
|D|-------77----------77------77-66----66--77-66--66--|
|A|----------77----------77---------77----------77----|
|D|---------------------------------------------------|

|Guitar 1
|e|---------|
|B|---------|
|G|---------|
|D|--7777---|
|A|--7777---|
|D|--7777---| repeat and fade
|
|Guitar 2
|e|-------------------------|
|B|-------------------------|
|G|-77-66-------77-66-------|
|D|-------77----------77----|
|A|----------77----------77-| repeat and fade
|D|-------------------------|
|
|Guitar 3
|e|-10-10-10-10-10-9-9-9-9-9-10-9-10-12-10-9-----------9--|
|B|-------------------------------------------repeat---10-|
|G|-------------------------------------------------------|
|D|-------------------------------------------------------|
|A|-------------------------------------------------------|
|D|-------------------------------------------------------|

e|-------------|
B|-------------|
G|--77-66------|
D|-------77----|
A|-7-------77--|
D|-------------|



Enjoy
Related for Miracle Of Survival tab