Song name
# A B C D E F G H I J K L M N O P Q R S T U V W X Y Z

Biffy Clyro - The Atrocity tab

Help us improve GuitareTab! Take a short survey!
----------------------------------------------------------------------------
			     THE ATROCITY - Biffy Clyro
----------------------------------------------------------------------------
Tabbed by:Tahoes
Email:tahoes@hotmail.com

Tuning: eBGDAE

The song starts with the piano so I basically transcribed it for one string, in order 
to wait for the guitar to start playing this song.

Piano Part:

       Intro:

e|----------------------------| x2   e|----------------------------|
B|----------------------------|      B|----------------------------|
G|----------------------------|      G|----------------------------|
D|----------------------------|      D|-----3----------------------|
A|-----3-------------5--------|      A|--------------------3-------|
E|----------------------------|      E|----------------------------|

e|----------------------------|
B|----------------------------|
G|----------------------------|
D|----------------------------|
A|-----1--------------5-------|
E|----------------------------|

       Verse 1:

e|----------------------------| x2   e|----------------------------| x2
B|----------------------------|      B|----------------------------|
G|----------------------------|      G|----------------------------|
D|----------------------------|      D|-----3----------------------|
A|-----3-------------5--------|      A|--------------------3-------|
E|----------------------------|      E|----------------------------|

e|--------------------1-------| x2
B|-----------------3----------|
G|-----------3----------------|
D|--------3-----3-------------|
A|-----1----------------------|
E|----------------------------|

       Verse 2:

e|----------------------------|
B|----------------------------|
G|----------------------------|
D|----------------------------|
A|-----5----------------------|
E|----------------------------|

e|----------------------------|      e|----------------------------| x2
B|----------------------------|      B|----------------------------|
G|----------------------------|      G|----------------------------|
D|----------------------------|      D|-----3----------------------|
A|-----3-------------5--------|      A|--------------------3-------|
E|----------------------------|      E|----------------------------|

e|--------------------1-------| x2
B|-----------------3----------|
G|-----------3----------------|
D|--------3-----3-------------|
A|-----1----------------------|
E|----------------------------|

                        Guitar enters here
       Verse 3&4:


e|-----------------0-------0---0-0-0------| x2
B|-----1---1-1-----3-------3---3-3-3------|
G|-----0---0-0-----2-------2---2-2-2------|
D|-----2---2-2-----0-------0---0-0-0------|
A|-----3---3-3----------------------------|
E|----------------------------------------|

e|-----1---1-1----------------------------| x2
B|-----1---1-1-----1-------1---1-1-1------|
G|-----2---2-2-----0-------0---0-0-0------|
D|-----3---3-3-----2-------2---2-2-2------|
A|-----3---3-3-----3-------3---3-3-3------|
E|-----1---1-1----------------------------|

e|----------------------------|
B|-----3333333333333333-------|
G|-----3333333333333333-------| (figure out the strummin pattern)
D|-----3333333333333333-------|
A|-----1111111111111111-------|
E|----------------------------|

e|----------------0-----------------------0----------|
B|-----1----------3-----------1-----------3----------|
G|-----0----------2-----------0-----------2----------|
D|-----2----------0-----------2-----------0----------|
A|-----3----------------------3----------------------|
E|---------------------------------------------------|

e|-----1----------------------1-----------0----------|
B|-----1----------1-----------3-----------3----------|
G|-----2----------0-----------3-----------2----------|
D|-----3----------2-----------3-----------0----------|
A|-----3----------3-----------1----------------------|
E|-----1---------------------------------------------|

       last verse:

e|----------------0-----------0------------0--------------------0----------|
B|-----1----------0-----------3------------0----------1---------0----------|
G|-----0----------0-----------2------------0----------0---------0----------|
D|-----2----------2-----------0------------2----------2---------2----------|
A|-----3----------2------------------------2----------3---------2----------|
E|----------------0------------------------0--------------------0----------|

e|-----2--2---2-33-2-0--2----2-33-2-0---------|
B|-----3--3---3-33-3-3--3----3-33-3-3---------|> from here, back to the last
G|-----2--2---2-22-2-2--2----2-22-2-2---------|  verse, and repeat it again
D|-----0--0---0-00-0-0--0----0-00-0-0---------|
A|--------------------------------------------|
E|--------------------------------------------|

there's a slight variation the last time you play that, which consist on making the last 
with the D's a bit longer.
The song finally end's with an A.

e|----0----|
B|----2----|
G|----2----|
D|----2----|
A|----0----|
E|---------|


Hope you've enjoyed this tab. Mon the Biffy!

============================================================================
Related for The Atrocity tab