Song name
# A B C D E F G H I J K L M N O P Q R S T U V W X Y Z

Biffy Clyro - Get Fucked Stud tab

E -------0---------------------------0-------------|
B -0h2h3---3p2-----------------0h2h3---3p2---------|
G -------------------------------------------------|
D ------------------4-4-4-4------------------4-4-4-|
A ------------------2-2-2-2------------------2-2-2-|
D -------------------------------------------------|

E -------0-------------------------0------------------|
B -0h2h3---3p2---------------0h2h3---3p2--------------|
G ----------------------------------------------------|
D ------------------4-4-4-------------------------4-4-|
A ------------------2-2-2-------------------------2-2-|
D ----------------------------------------------------|

E -------0---------------------------------|
B -0h2h3---3p2-----------------------------|
G -------------------2-2-2-2-2-------------|
D -------------------0-0-0-0-0--2-2-2-2-2--|
A ------------------------------0-0-0-0-0--|
D -----------------------------------------| (not sure how many times these chords here are played)

E -------------------------------|
B ------------10-----------------|
G --------11------11-------------| (X amount of times)
D -----9-------------------------|
A --9----------------------------|
D -------------------------------|

E -------------9-----------------|
B ----------------10-------------|
G --------11----------11---------| (X an amount of times)
D -----9-------------------------|
A --9----------------------------|
D -------------------------------|

The "you have to believe in yourself" part is missing here as i'm sure you'll notice, 
i'm working on it, i'd apreciate sum input from people :D

Chords:

E ------------------------------------------------------|
B ------------------------------------------------------|
G ---2---7---11--7--------------------------------------|
D ---0---5---9---5--------------------------------------|
A ---0---5---9---5--------------------------------------|
D ---0---5---9---5--------------------------------------|

Just figure out how many times each is played - easy!

Electric picking part

E-----------------------|
B--7-----------8--------|
G-----7-----------7-----|
D--------9-----------9--|  (X amount of times)
A-----------------------|
D-----------------------|

E -------------------------------|
B ------------10-----------------|
G --------11------11-------------| (X amount of times)
D -----9-------------------------|
A --9----------------------------|
D -------------------------------|

Finish on a chord of the above notes ^


The bit below is close to the "All hands on, courtesy cunt" part

e]-------------------------------------------------------------------]
B]--12-1212-x-x-x-x-12-1212-x-x-x-x-10-1010-x-x-x-x-10-1010-x-x-x-10-]
G]--11-1111-x-x-x-x-11-1111-x-x-x-x-9--9-9--x-x-x-x-9--9-9--x-x-x-9--]
D]----------x-x-x-x---------x-x-x-x-------------------------x-x-x----]
A]--9--9-9--x-x-x-x-9--9-9--x-x-x-x-7--7-7--x-x-x-x-7--7-7--x-x-x-7--]
D]-------------------------------------------------------------------]

Coming out of this riff into "Skyline is burning red"

E -----------------------------------------------------|
B -----------------------------------------------------|
G ---2---11--9-----------------------------------------|
D ---0---9---7-----------------------------------------|
A ---0---9---7-----------------------------------------|
D ---0---9---7-----------------------------------------|

SKYLINE IS BURNING RED

E ----------------------------------------------|
B ----------------------------------------------|
G ---7-7-7--9-9-9--11-11-11-11-11-11--11-11-11--|
D ---5-5-5--7-7-7--9--9--9--9--9--9---0--0--0---|
A ---5-5-5--7-7-7--9--9--9--9--9--9---9--9--9---|
D ---5-5-5--7-7-7--9--9--9--9--9--9---0--0--0---|

E -------------------------------------------------------|
B -------------------------------------------------------|
G -9-9-9--4-4-4-4-4-4-4--4-4-4---------11-11-11-11-11-11-|
D -0-0-0--x-x-x-x-x-x-x--2-2-2--4-4-4--9--9--9--9--9--9--|
A -7 7-7--2-2-2-2-2-2-2--2-2-2--4-4-4--9--9--9--9--9--9--|
D -0-0-0-----------------2-2-2--4-4-4--9--9--9--9--9--9--|

E--------------------------|
B--------------------------|
G-9-9-9-9-9-9--7-7-7-7-7-7-|
D-x-x-x-x-x-x--x-x-x-x-x-x-|
A-7-7-7-7-7-7--5-5-5-5-5-5-|
D--------------------------|

eventually the above bar changes to the following:

E--------------------------------|
B--------------------------------|
G-9-9-9-9-9-9--14-14-14-14-14-14-|
D-x-x-x-x-x-x---x--x--x--x--x--x-|
A-7-7-7-7-7-7--12-12-12-12-12-12-|
D--------------------------------|


The interlude bit
E ---------------12--------------|
B --12--14--15-------15--14------|
G -------------------------------|
D -------------------------------| (dunno how many times)
A -------------------------------|
D -------------------------------|

E ---------------12--14--15--17--15--14--12-----------|
B --12--14--15---------------------------------15--14-|
G ----------------------------------------------------|
D ----------------------------------------------------|
A ----------------------------------------------------|
D ----------------------------------------------------|


If u find any problems with the tab e-mail me at marcsmyth@hotmail.com
 MON THE BIFFY!!!
Tap to rate this tab
# A B C D E F G H I J K L M N O P Q R S T U V W X Y Z