Song name
# A B C D E F G H I J K L M N O P Q R S T U V W X Y Z

Biffy Clyro - Saturday Superhouse Acoustic tab

Biffy Clyro - Saturday Superhouse (Acoustic)

Intro/Main Riff

e]---------------|
b]-4h5-----5-----|
g]-6----4--6--4--|
d]------6-----6--|
a]---------------|
d]---------------|

Chorus

  (Listen for strumming rythmn)
e]---------------------------------------------------|
b]---------------------------------------------------|
g]-2--4--4--4--2--4--4--4--2--4-----2--2--4----------|
d]-2--4--2--2--2--4--2--2--2--2--2--2--2--4----------|
a]-0--2--4--4--0--2--4--4--0--2--2--0--0--2----------|
d]-------------------------------2-------------------|


Solo

e]-------------------------------------------------------------|
b]-------------------------------------------------------------|
g]-------------------------------------------------------------|
d]-------------------------------------------------------------|
a]-4--6-7--9-11--9-7--6-4--6-7--9-4--2--4-6--7-9--7-6--4-2-----|
d]-------------------------------------------------------------|

e]-----------------------------------------------------------------|
b]-----------------------------------------------------------------|
g]-----------------------------------------------------------------|
d]---------------------------1-------------------------------1-2-4-|
a]-4-4-4-2-4-4-4-2-4-4-4-2-4---4-2-4-4-4-2-4-4-4-2-4-4-4-2-4-------|
d]-----------------------------------------------------------------|

e]-------------------------------------------------------------|
b]---------------------------------------------------5-5-5--5--|
g]---------------------------------------------------6-6-6--6--|
d]-------------------------------------------------------------|
a]-4-4-4-2-2-2-2-2-4-4-4-2-2-2-2-2-6b7-0-6b7-0-6b7-4-----------|
d]-------------------------------------------------------------|

Outro
e]---------------------------------------------------|
b]---------------------------------------------------|
g]-4--4--2--4--4--4--2--4----------------------------|
d]-2--2--2--4--2--2--2--4--2-------------------------|
a]-4--4--0--2--4--4--0--2--2-------------------------|
d]-------------------------2-------------------------|
Tap to rate this tab
 
# A B C D E F G H I J K L M N O P Q R S T U V W X Y Z