Song name
# A B C D E F G H I J K L M N O P Q R S T U V W X Y Z

Biffy Clyro - Folding Stars tab

Folding Stars
Biffy Clyro
Puzzle
Tuning: Standard (EADGBE)
Tabbed by: Scrubs

Arranged for Rhythm Guitar

h = hammer on
p = pull off
\ = slide down
/ = slide up
~ = let ring

Intro

-----------------|
-----------------|
-7-7-7--7-7-7----| x4
--------------5~-|
-4-4-4--5-5-5----|
--------------3~-|

Verse

-----------------|
-----------------|
-7-7-7--7-7-7----| x4 (On G in verse add in more strumming
--------------5~-|     listen to song for timing)
-4-4-4--5-5-5----|
--------------3~-|

Pre-Chorus

-0-00--2-22--333--5-555-|
-0-00--2-22--333--5-555-|
-3-33--3-33--333--6-666-| x2
-2-22--4-44--555--7-777-|
-2-22--4-44--555--7-777-|
-0-00--2-22--333--5-555-|

Chorus

-22222222-00000000-00000000-22222222-33333333-|
-33333333-33333333-22222222-33333333-33333333-|
-22222222-22222222-22222222-55555555-44444444-|
-00000000-22222222-22222222-55555555-55555555-|
----------00000000-00000000-22222222-55555555-|
-------------------------------------33333333-|

-00000000-22222222-00000000-|
-00000000-33333333-33333333-|
-11111111-22222222-22222222-|
-22222222-00000000-22222222-|
-22222222----------00000000-|
-00000000-------------------|


Play Intro x2 after the chorus.

-----------------|
-----------------|
-7-7-7--7-7-7----| x2
--------------5~-|
-4-4-4--5-5-5----|
--------------3~-|

Verse 2

-----------------|
-----------------|
-7-7-7--7-7-7----| x4 (On G in verse add in more strumming
--------------5~-|     listen to song for timing)
-4-4-4--5-5-5----|
--------------3~-|


Pre-Chorus

-0-00--2-22--333--5-555-|
-0-00--2-22--333--5-555-|
-3-33--3-33--333--6-666-| x2
-2-22--4-44--555--7-777-|
-2-22--4-44--555--7-777-|
-0-00--2-22--333--5-555-|


Chorus

-22222222-00000000-00000000-22222222-33333333-|
-33333333-33333333-22222222-33333333-33333333-|
-22222222-22222222-22222222-55555555-44444444-|
-00000000-22222222-22222222-55555555-55555555-|
----------00000000-00000000-22222222-55555555-|
-------------------------------------33333333-|

-00000000-22222222-00000000-|
-00000000-33333333-33333333-|
-11111111-22222222-22222222-| x2
-22222222-00000000-22222222-|
-22222222----------00000000-|
-00000000-------------------|

Bridge

-----------------|
-----------------|
-7-7-7--7-7-7----| x4
--------------5~-|
-4-4-4--5-5-5----|
--------------3~-|

[PM..............]
--------------------|
--------------------|
-7-7-7--7-7-7-------| x4
--------------5-5-5-|
-4-4-4--5-5-5-------|
--------------3-3-3-|

Pre-Chorus

-0-00--2-22--333--5-555-|
-0-00--2-22--333--5-555-|
-3-33--3-33--333--6-666-| x4
-2-22--4-44--555--7-777-|
-2-22--4-44--555--7-777-|
-0-00--2-22--333--5-555-|

Chorus

-22222222-00000000-00000000-22222222-33333333-|
-33333333-33333333-22222222-33333333-33333333-|
-22222222-22222222-22222222-55555555-44444444-|
-00000000-22222222-22222222-55555555-55555555-|
----------00000000-00000000-22222222-55555555-|
-------------------------------------33333333-|

-00000000-22222222-00000000-|
-00000000-33333333-33333333-|
-11111111-22222222-22222222-| x2
-22222222-00000000-22222222-|
-22222222----------00000000-|
-00000000-------------------|

Outro

-----------------|
-----------------|
-7-7-7--7-7-7----| x2
--------------5~-|
-4-4-4--5-5-5----|
--------------3~-|

It's not Getting Easier...
-----------------|
-----------------|
-7-7-7--7-7-7----| x2 (On the second time let 3 and 5 ring longer and
--------------5~-|     gradually bring volume up)
-4-4-4--5-5-5----|
--------------3~-|

Credit goes to my Guitar Teach, he basically taught this song to me, some of it may be 
as I may be wrong in tabbing what,
1st tab ^.^
Tap to rate this tab
# A B C D E F G H I J K L M N O P Q R S T U V W X Y Z