Guitaretab - guitar tabs
Song name
# A B C D E F G H I J K L M N O P Q R S T U V W X Y Z

Biffy Clyro - Love Has A Diameter tab

Song: Love Has A Diameter
Artist: Biffy Clyro
Album: Puzzle

Tabbed by: Gary the Hann
Email: Ckyfan1@hotmail.com

Tuning: Drop D

This is a very rough guide to the song but everything you need is there and Im sure you 
all work out the formation and everything :P
Mon the Biff

Intro/Post-Chorus
e|------12~------------12~-----12h13-12~--------12~------------12~----------|
B|--10~------------13~----------------------10~------------13~--------------|
G|--------------------------------------------------------------------------|
D|--------------------------------------------------------------------------|
A|--------------------------------------------------------------------------|
D|--------------------------------------------------------------------------|


Verse
e|------12~------------13~------------12~------------13~---------13~------|
B|--13~------------13~------------13~------------13~---------15~----------|
G|------------------------------------------------------------------------|
D|------------------------------------------------------------------------|
A|------------------------------------------------------------------------|
D|------------------------------------------------------------------------|


Chorus
e|----------------------------------------------------------------------------|
B|--1~----3~----6~--------1~----3~----6~--------1~----3~----6~----------------|
G|--2~----4~----7~--------2~----4~----7~--------2~----4~----7~----------------|
D|--2~----0~----7~--------2~----0~----7~--------2~----0~----7~----3~----------|
A|--0~----5~----5~--------0~----5~----5~--------0~----5~----5~----3~----------|
D|--------5~--------------------5~--------------------5~----------3~----------|

[ Tab from: http://www.guitaretab.com/b/biffy-clyro/91070.html ]
Verse II
e|------12~-------12~-------13~-------13~-------12~-------12~-------13~-------13~---|
B|--13~-------13~-------13~-------13~-------13~-------13~-------13~-------15~-------|
G|----------------------------------------------------------------------------------|
D|----------------------------------------------------------------------------------|
A|----------------------------------------------------------------------------------|
D|----------------------------------------------------------------------------------|


Bridge
e|----------------------------------------------------------------------------|
B|-----------1-----------------1-----------------1----------------------------|
G|--5--------2-----------------2--------5--------2-----------------3----------|
D|--5-x32----2-x32----3--------2-x32----5-x32----2-x32----3--------3-x32------|
A|--3--------0--------3-x32----0--------3--------0--------3-x32----1----------|
D|--------------------3-----------------------------------3-------------------|

Bridge  Overdubbed Guitar
e|--3-x16--15--17--3-x16--15--12--10--1-x16--13--15--3-x16--15--17----|
B|--------------------------------------------------------------------|
G|--------------------------------------------------------------------|
D|--------------------------------------------------------------------|
A|--------------------------------------------------------------------|
D|--------------------------------------------------------------------|
Tremolo pick every note except 3 & 1


Final Chorus  Overdubbed Guitar
e|--0----------------3--5--0------------------|
B|--------------------------------------------|
G|--------------------------------------------|
D|--------------------------------------------|
A|--------------------------------------------|
D|--------------------------------------------|
Tremolo Pick


Outro
e|------12~------------12~------------12~------------12~----------|
B|--10~------------13~------------10~------------13~--------------|
G|----------------------------------------------------------------|
D|----------------------------------------------------------------|
A|----------------------------------------------------------------|
D|----------------------------------------------------------------|
Related for Love Has A Diameter tab