Song name
# A B C D E F G H I J K L M N O P Q R S T U V W X Y Z

Biffy Clyro - 9 15ths tab

Help us improve GuitareTab! Take a short survey!
-------------------------------------------------------------------------------
       		          9/15ths - Biffy Clyro
-------------------------------------------------------------------------------
Tabbed by: Ben Hough	
Email: ben_hough@hotmail.co.uk

Tuning: Drop D

This is just the basic song that i could sort of hear... 
enjoy....


     Cminor			   Bminor
e|------------------------------------------|
B|-------4-----------------4--------------3-|
G|-----------5----------------5-------------|
D|-5---5---5---5----5---5---5---5--4---4----|
A|---3----------------3--------------2------|
E|------------------------------------------|

            Fminor                        Cminor
e|-----------------------------------------------------|
B|---------------------------------------------4->->->-|
G|-----------1-------------------1---------------------|
D|-------1-------1-----------1-------1---5---5---------|
A|-3---3---3---3---3---3---3---3---3-------3-----------|
E|---1-------------------1-----------------------------|

*******************************

Then strum these chords off beat (listen to song for rhythm)

Cm    Bm   Fm   Cm

*******************************

Then the 'your alibi' bit starts...

e|-------------------|
B|-------------------|
G|-5---55---5555-55--|
D|-5---55---5555-55--|
A|-3---33---3333-33--|
E|-------------------|

then just strum the chord sequence with bare gain, 
then back to the main chords on the off beat

===============================================================================
Related for 9 15ths tab