Guitaretab - guitar tabs
Song name
# A B C D E F G H I J K L M N O P Q R S T U V W X Y Z

Biffy Clyro - Strung To Your Ribcage tab

STRUNG TO YOUR RIBCAGE-BIFFY CLYRO-INFINITY LAND
Tabbed by:Frusciante_50
Drop D tuning

Note:  /=slide up   \=slide down   p=pull off    x=mute string 

Intro:

e|-------------------------------------------------------------------------|
B|-------------------------------------------------------------------------|
G|-----------------------------------------------------15\14---14/18-------|
D|-5-5----5-----3-3-----6-6-6-6----11-11-11------0--0---x\-x----x/-x-------|
A|-3-3----2-----1-0-----6-6-6-6----11-11-11------0--0--13\12---12/16-------|
D|----------------------6-6-6-6----11-11-11------0--0----------------------|
                        ^ ^ ^ ^     ^  ^  ^
                           PALM MUTE

e|-------------------------------------------------------------------------|
B|-------------------------------------------------------------------------|
G|-------15\14---14/18-----------------------------------------------------|
D|-0--0---x\-x----x/-x------5-5----5-----3-3-----6-6-6-6----11-11-11-------|
A|-0--0--13\12---12/16------3-3----2-----1-0-----6-6-6-6----11-11-11-------|
D|-0--0------------------------------------------6-6-6-6----11-11-11-------|
                                                ^ ^ ^ ^     ^  ^ ^
                                                     PALM MUTE

e|-------------------------------------------------------------------------|
B|-------------------------------------------------------------------------|
G|-------15\14---14/18----------15\14---18\--------------------------------|
D|-0-0----x\-x----x/-x----0-0----x\-x----x\--6-6-6-6-6-6-6-----------------|
A|-0-0---13\12---12/16----0-0---13\12---16\--6-6-6-6-6-6-6-----------------|
D|-0-0--------------------0-0----------------6-6-6-6-6-6-6-----------------|


e|-------------------------------------------------------------------------|
B|-------------------------------------------------------------------------|
G|------------------------------------15\14----14/18----------15\14--18/---|
D|-11-11-11-11-11-11-11----------0-0---x\-x-----x/-x-----0-0---x\-x---x/---|
A|-11-11-11-11-11-11-11----------0-0--13\12----12/16-----0-0--13\12--16/---|
D|-11-11-11-11-11-11-11----------0-0---------------------0-0---------------|

e|-------------------------------------------------------------------------|
B|-------------------------------------------------------------------------|
G|-----------------------------------------------15\14--14/18---------15\14|
D|-6-6-6-6-6-6-6---11-11-11-11-11-11-11-----0-0---x\-x---x/-x----0-0---x\-x|
A|-6-6-6-6-6-6-6---11-11-11-11-11-11-11-----0-0--13\12--12/16----0-0--13\12|
D|-6-6-6-6-6-6-6---11-11-11-11-11-11-11-----0-0------------------0-0-------|


e|-------------------------------------------------------------------------|
B|-------------------------------------------------------------------------|
G|-14/18--------15\14----14/18------------15\14----18----------------------|
D|--x/-x---0-0---x\-x-----x/-x------0-0----x\-x-----x----------------------|
A|-12/16---0-0--13\12----12/16------0-0---13\12----16----------------------|
D|---------0-0----------------------0-0------------------------------------|

Lead up to Verse:

e|-------------------------------------------------------------------------|
B|-------------------------------------------5p0---0----0------------------|
G|-------------------------------------------------2fb--2fb----------------|
D|-2--2--2--2------2-2-2-----2-2-2------2-2-2------------------------------|
A|-2--2--2--2------2-2-2-----2-2-2------2-2-2------------------------------|
D|-2--2--2--2------2-2-2-----2-2-2------2-2-2------------------------------|


Verse:
e|-------------------------------------------------------------------------|
B|-3-3-3-3-3-3-3-3-5-5-5-5-5-5-5-5-3-3-3-3-3-3-3-3-5-5-5-5-5-5-5-5---------|
G|-2-2-2-2-2-2-2-2-2-2-2-2-2-2-2-2-2-2-2-2-2-2-2-2-2-2-2-2-2-2-2-2---------|
D|-0-0-0-0-0-0-0-0-0-0-0-0-0-0-0-0-0-0-0-0-0-0-0-0-0-0-0-0-0-0-0-0---------|
A|-0-0-0-0-0-0-0-0-0-0-0-0-0-0-0-0-0-0-0-0-0-0-0-0-0-0-0-0-0-0-0-0---------|
D|-0-0-0-0-0-0-0-0-0-0-0-0-0-0-0-0-0-0-0-0-0-0-0-0-0-0-0-0-0-0-0-0---------|

e|-------------------------------------------------------------------------|
B|-------------------------------------------------------------------------|
G|-------------------------------------------------------------------------|
D|-2-2-2-2-2-2-2-2-2-2-2-2-2-2-2-2-2-2-2-2-2-2-2-2-2-2-2-2-2-2-2-2---------|
A|-2-2-2-2-2-2-2-2-2-2-2-2-2-2-2-2-2-2-2-2-2-2-2-2-2-2-2-2-2-2-2-2---------|
D|-2-2-2-2-2-2-2-2-2-2-2-2-2-2-2-2-2-2-2-2-2-2-2-2-2-2-2-2-2-2-2-2---------|

e|-------------------------------------------------------------------------|
B|-3-3-3-3-3-3-3-3-5-5-5-5-5-5-5-5-3-3-3-3-3-3-3-3-5-5-5-5-5-5-5-5---------|
G|-2-2-2-2-2-2-2-2-2-2-2-2-2-2-2-2-2-2-2-2-2-2-2-2-2-2-2-2-2-2-2-2---------|
D|-0-0-0-0-0-0-0-0-0-0-0-0-0-0-0-0-0-0-0-0-0-0-0-0-0-0-0-0-0-0-0-0---------|
A|-0-0-0-0-0-0-0-0-0-0-0-0-0-0-0-0-0-0-0-0-0-0-0-0-0-0-0-0-0-0-0-0---------|
D|-0-0-0-0-0-0-0-0-0-0-0-0-0-0-0-0-0-0-0-0-0-0-0-0-0-0-0-0-0-0-0-0---------|
[ Tab from: http://www.guitaretab.com/b/biffy-clyro/98749.html ]
e|-------------------------------------------------------------------------|
B|-------------------------------------------------------------------------|
G|-------------------------------------------------13-13-13-13-13-14-14-13-|
D|-11-11-11-11-11-11-11-11-11-11-11-11-11-11-11-11-11-11-11-11-11-11-11-11-|
A|-11-11-11-11-11-11-11-11-11-11-11-11-11-11-11-11-11-11-11-11-11-11-11-11-|
D|-11-11-11-11-11-11-11-11-11-11-11-11-11-11-11-11-11-11-11-11-11-11-11-11-|

e|-------------------------------------|Play last bar x2
B|-------------------------------------|
G|-13-13-13-13-13-14-14-11-------------|
D|-11-11-11-11-11-11-11-11-------------|
A|-11-11-11-11-11-11-11-11-------------|
D|-11-11-11-11-11-11-11-11-------------|

Then:

e|-------------------------------------------------------------------------|
B|------------------------------------------7p5p0---2----------------------|
G|--------------------------------------------------4fb--------------------|
D|-4---4---4---4----4-4-4----4-4-4---4-4-4---------------------------------|
A|-4---4---4---4----4-4-4----4-4-4---4-4-4---------------------------------|
D|-4---4---4---4----4-4-4----4-4-4---4-4-4---------------------------------|

Verse 2:

e|-------------------------------------------------------------------------|
B|-------------------------------------------------------------------------|
G|-------------------------------------------------------------------------|
D|-4-4-4-4-4-4-4-4-4-4-4-4-4-4-4-4-4-4-4-4-4-4-4-4-4-4-4-4-4-4-4-4---------|
A|-4-4-4-4-4-4-4-4-4-4-4-4-4-4-4-4-4-4-4-4-4-4-4-4-4-4-4-4-4-4-4-4---------|
D|-4-4-4-4-4-4-4-4-4-4-4-4-4-4-4-4-4-4-4-4-4-4-4-4-4-4-4-4-4-4-4-4---------|

e|-------------------------------------------------------------------------|
B|-------------------------------------------------------------------------|
G|-------------------------------------------------------------------------|
D|-0-0-0-0-0-0-0-0-0-0-0-0-0-0-0-0-----------------------------------------|
A|-0-0-0-0-0-0-0-0-0-0-0-0-0-0-0-0-----------------------------------------|
D|-0-0-0-0-0-0-0-0-0-0-0-0-0-0-0-0-----------------------------------------|

e|-------------------------------------------------------------------------|
B|-------------------------------------------------------------------------|
G|-------------------------------------------------13-13-13-13-13-14-14-13-|
D|-11-11-11-11-11-11-11-11-11-11-11-11-11-11-11-11-11-11-11-11-11-11-11-11-|
A|-11-11-11-11-11-11-11-11-11-11-11-11-11-11-11-11-11-11-11-11-11-11-11-11-|
D|-11-11-11-11-11-11-11-11-11-11-11-11-11-11-11-11-11-11-11-11-11-11-11-11-|

e|-------------------------------------|Play last bar x2
B|-------------------------------------|
G|-13-13-13-13-13-14-14-11-------------|
D|-11-11-11-11-11-11-11-11-------------|
A|-11-11-11-11-11-11-11-11-------------|
D|-11-11-11-11-11-11-11-11-------------|

Before going into next part, play the 13th fret on the G string

"Strung to you ribcage" part:

e|-------------------------------------------------------------------------|
B|-------------------------------------------------------------------------|
G|-------------------------------------11-11-12-11--------------11-11-12-11|
D|-7-7-7-7-----2-2-2-2-----10-10-10-10-10-10-10-10--10-10-10-10-10-10-10-10|
A|-7-7-7-7-----2-2-2-2-----10-10-10-10-10-10-10-10--10-10-10-10-10-10-10-10|
D|-7-7-7-7-----2-2-2-2-----10-10-10-10-10-10-10-10--10-10-10-10-10-10-10-10|

e|-------------------------------------------------------------------------|
B|-------------------------------------------------------------------------|
G|-------------------------------------11-11-12-11--------------11-11-12-11|
D|-0-0-0-0-----2-2-2-2-----10-10-10-10-10-10-10-10--10-10-10-10-10-10-10-10|
A|-0-0-0-0-----2-2-2-2-----10-10-10-10-10-10-10-10--10-10-10-10-10-10-10-10|
D|-0-0-0-0-----2-2-2-2-----10-10-10-10-10-10-10-10--10-10-10-10-10-10-10-10|

e|-------------------------------------------------------------------------|
B|-------------------------------------------------------------------------|
G|-------------------------------------11-11-12-11--------------11-11-12-11|
D|-0-0-0-0-----2-2-2-2-----10-10-10-10-10-10-10-10--10-10-10-10-10-10-10-10|
A|-0-0-0-0-----2-2-2-2-----10-10-10-10-10-10-10-10--10-10-10-10-10-10-10-10|
D|-0-0-0-0-----2-2-2-2-----10-10-10-10-10-10-10-10--10-10-10-10-10-10-10-10|

Chords for outro:

e|------------------------------------------------------------------------|
B|------------------------------------------------------------------------|
G|------------------------------------------------------------------------|
D|---3----5----6----0-----------------------------------------------------|
A|---3----5----6----0-----------------------------------------------------|
D|---3----5----6----0-----------------------------------------------------|

End on:

e|------------------------------------------------------------------------|
B|------------------------------------------------------------------------|
G|------------------------------------------------------------------------|
D|-7-7-7-7-7-7-7-7--------------------------------------------------------|
A|-7-7-7-7-7-7-7-7--------------------------------------------------------|
D|-7-7-7-7-7-7-7-7--------------------------------------------------------|




Related for Strung To Your Ribcage tab
Advertisement will be closed in 10 seconds