Guitaretab - guitar tabs
Song name
# A B C D E F G H I J K L M N O P Q R S T U V W X Y Z

Big And Rich - Never Mind Me tab

(Main Riff)

e|--------------------------------|
B|------1-0---0-------1-0---0-----|
G|--0-2-----2---0---2-----2---0---| 
D|----------------0-------------0-|   
A|--------------------------------|
E|--------------------------------|
  PM. . . . . . . . . . . . . . .

(Verse)

    Cadd9  G  Gsus2         Cadd9  D  Am7  G/B  Cadd9
e|--3------3--3----|--------3------2--0----3----3-----|
B|--3------3--3----|-Repeat-3------3--2----0----3-----|
G|--0------0--2----|<-bar---0------2--0----0----0-----|
D|--2------0--0----|--5x----2------0--3----0----2-----|
A|--3------2--0----|--------3---------0----2----------|
E|---------3--3----|----------------------------------|

           (hammer
	    on G string)

(Chorus)
[ Tab from: http://www.guitaretab.com/b/big-and-rich/144196.html ]
    Cadd9  D  G		    Cadd9  G  D/F# A  Cadd9   G 
e|--3------2--3----|--------3------3--3----0--3-------3-|
B|--3------3--3----|-Repeat-3------3--2----2--3-------3-|
G|--0------2--0----|<-bar---0------0--3----2--0-------0-|
D|--2------0--0----|--2x----2------0--0----2--2-------0-|
A|--3---------2----|--------3------2--x----0--3-------2-|
E|------------3----|---------------3--2---------------3-|

Lead Chords
G  D/F#  G  Cadd9  G  D/F#  G  Cadd9  G  D/F#  G  Am7  C  G

(post solo)

(Fill)

e|------3-|
B|----1-3-|
G|--2---0-|
D|------2-|
A|------3-|
E|--------|
  PM. .

(Final Chorus)

    Cadd9  D  G		    Cadd9  G  D/F# A 
e|--3------2--3----|--------3------3--3----0-|
B|--3------3--3----|-Repeat-3------3--2----2-|
G|--0------2--0----|<-bar---0------0--3----2-|
D|--2------0--0----|--2x----2------0--0----2-|
A|--3---------2----|--------3------2--x----0-|
E|------------3----|---------------3--2------|

Order:

(main riff) x4
(verse) x2
(chorus) x1
(verse) x2
(chorus) x1
(lead chords) x1
(main riff) x2
(fill) x1
(chorus) x1
(final chorus) x2
Related for Never Mind Me tab
Advertisement will be closed in 10 seconds