Song name
# A B C D E F G H I J K L M N O P Q R S T U V W X Y Z

Big And Rich - Blow My Mind tab

Intro to Blow my mind...................Enjoy. e-mail me if any problems
at marcellness@gmail.com

INTRO
|---222---2---22------222---2---22---| 
|---333---3---33------333---3---33---|
|---444---4---44------444---4---44---|
|------------------------------------|
|------------------------------------|
|------------------------------------|

|-222---2---22----4444---22----------|
|-333---3---33----5555---33----------|
|-444---4---44----6666---44----------|
|------------------------------------|
|------------------------------------|
|------------------------------------|

|---222---2---22------222---2---22---|
|---333---3---33------333---3---33---|
|---444---4---44------444---4---44---|
|------------------------------------|
|------------------------------------|
|------------------------------------|

|---222---2---22----4LET RING--------|
|---333---3---33----5----------------|
|---444---4---44----6----------------|
|------------------------------------|
|------------------------------------|
|------------------------------------|

VERSE
|---------------------------------------------------------|\ 
|---------------------------------------------------------| \ 
|---------------------------------------------------------|  \
|---------------------------------------------------------|  /X4 until
|--2-2---4-5----222-4-5---22-22--3-5---2-----7--5--3-2----| /    chorus
|---------------------------------------------------------|/
Tap to rate this tab
 
# A B C D E F G H I J K L M N O P Q R S T U V W X Y Z