Song name
# A B C D E F G H I J K L M N O P Q R S T U V W X Y Z

Big And Rich - Jalapeno tab

INTRO

e--------------------3------|
B--------------------4------|
G-----0-3--0-3-5-----3------|
D---3----------------5------|
A-3--------------(3)-3------|
E---------------------------|
                    Cm7
In between verses play this

e--3-3-3--4-3---------------|
B--4-4-4--5-4---------------|
G--3-3-3--4-3---------------|
D--5-5-5--6-5---------------|
A--3-3-3--4-3---------------|
E---------------------------|
Tap to rate this tab
# A B C D E F G H I J K L M N O P Q R S T U V W X Y Z