Song name
# A B C D E F G H I J K L M N O P Q R S T U V W X Y Z

Big And Rich - Lost In This Moment tab

Rythm guitar;  acoustic
Lead guitaar;  electric, light distortion

INTRO (Both Guitars)
E, B, F#, E
E, B, F#


LEAD GUITAR VERSE (REPEAT 4 TIMES EACH VERSE)
  |=====================P.M.============================|
E-------------------------------------------------------|
B-------------------------------------------------------|
G------4-4---4-4---4-4--4------------4-4---4-4---4----4-|
D-6-4-6---6-6---6-6----6--------6-4-6---6-6---4-6--6-4--|
A-------------------------------------------------------|
E-------------------------------------------------------|

RYTHM GUITAR VERSE (REPEAT 4X EACH VERSE)
F#, E, B

REPEAT VERSE 1X


CHORUS (REPEAT ONCE EACH CHORUS)
E, B, F#, E
E, B, F#
E, B, F#, E
E, B, F#, E


LEAD GUITAR VERSE (REPEAT 4X EACH VERSE)
  |=====================P.M.============================|
E-------------------------------------------------------|
B-------------------------------------------------------|
G------4-4---4-4---4-4--4------------4-4---4-4---4----4-|
D-6-4-6---6-6---6-6----6--------6-4-6---6-6---4-6--6-4--|
A-------------------------------------------------------|
E-------------------------------------------------------|

RYTHM GUITAR VERSE (REPEAT 4X EACH VERSE)
F#, E, B


CHORUS
E, B, F#, E
E, B, F#
E, B, F#, E
E, B, F#, E


LEAD SOLO
    |=P.M.|       |=P.M=|
E---------------------------------------------------7~~-9^~~rp7-9~~~~-|
B----------------------------------------------7-7-9------------------|
G--------4-4~~--------4-6--6^~~rp4-6~~-----6s8--8---------------------|
D----4-6--6--------4-6------------------------------------------------|
A-4h6-----------4h6---------------------------------------------------|
E---------------------------------------------------------------------|

RYTHM GUITAR DURING SOLO
E, B, F#, E
E, B, F#


CHORUS
E, B, F#, E
E, B, F#
E, B, F#, E
E, B, F#, E


OUTRO
E, B, F#
E, B, F#, E
Tap to rate this tab
 
# A B C D E F G H I J K L M N O P Q R S T U V W X Y Z