Song name
# A B C D E F G H I J K L M N O P Q R S T U V W X Y Z

Big And Rich - Rollin The Ballad Of Big And Rich tab

Tuning:DADGBe

Riff 1
e--------------------------------------------------------|
B--------------------------------------------------------|
G--------------------------------------------------2-5-7-|
D---0-0------------------------0-0-----------------------| > 2 times
A---0-0-----------------0-3-5--0-0-----------------------|
D---0-0-3p0-0-5p0-0-3p0--------0-0-3p0-0-5p0-0-3p0-------|

Riff 2
e---------------------------|
B---------------------------|
G---------------------------|
D---0-0--3p0--5p0--3p0-3p0--| > 2 times
A---0-0--3p0--5p0--3p0-3p0--|
D---0-0--3p0--5p0--3p0-3p0--|

Riff 3
e-----------------------------|
B-----------------------------|
G-----------------------------|
D-------7-----5-----5-3p0-3p0-| > 4 times
A-------5-----3-----5-3p0-3p0-|
D---0-0---0-0---5-5-5-3p0-3p0-|
   * *   * *   * *

Riff 4
e-----------------------------|
B-----------------------------|
G-----------------------------|
D-------7-----5-----5--3-5----| > 3 times
A-------5-----3-----5--1-3----|
D---0-0---0-0---5-5-5---------|
    * *   * *   * *

Riff 1 - 1 time
Riff 3 - 5 times
Riff 4 - 3 times

Solo
e--------------------------------------------------------------------------|
B--------------------------------------------------------------------------|
G--------------------------------------------------------------------------|
D------3p0-0-5p0-0-3p0-----------3p0-0-5p0-0-3p0-----------3p0-0-5p0-0-3p0-|
A----------------------0-3-5---------------------0-3-5---------------------|
D---0~~------------------------3~~------------------------5~~--------------|

e----------------------------------|
B----------------------------------|
G----------------------------------|
D---------5~-3-5-5~-3-5-5~-3-3-----|
A---0-3-5--------------------------|
D----------------------------------|

Riff 5
e------------------------------------------------------|
B------------------------------------------------------|
G------------------------------------------------------|
D---0~~~~~~---3~~~~~~---5~~~~~~--0-0-0-3-0-0-0-3-0-0-3-|
A---0~~~~~~---3~~~~~~---5~~~~~~--0-0-0-3-0-0-0-3-0-0-3-|
D---0~~~~~~---3~~~~~~---5~~~~~~--0-0-0-3-0-0-0-3-0-0-3-|
                                 * * *   * * *   * *

Riff 3 - 5 times
Riff 4 - 3 times
Riff 3 - 12 times
Riff 4 - 6 times
Riff 1 - 2 times
Tap to rate this tab
# A B C D E F G H I J K L M N O P Q R S T U V W X Y Z