Guitaretab - guitar tabs
Song name
# A B C D E F G H I J K L M N O P Q R S T U V W X Y Z

Big Audio Dynamite Ii - The Globe tab

-------------------------------------------------------------------------------
			     The Globe - BADII
-------------------------------------------------------------------------------
Tabbed by: Josh
Email: joshharris56@gmail.com

Tuning: Standard

Intro
                            D     D     D     D 
e---5h83h61h40h2---------2-----2-----2-----2--------|
B---------------------------3-----3-----3-----3--------|
G---------------------------2-----2-----2-----2--------|
D---------------------------0-----0-----0-----0--------|
A------------------------------------------------------|
E------------------------------------------------------|
                break it on down...


Harmonics
[ Tab from: http://www.guitaretab.com/b/big-audio-dynamite-ii/112155.html ]
e---(7)--------|
B-------(7)-----|
G---------------|  played throughout
D---------------|
A---------------|
E---------------|


Main Riff - (come on and dim the lights)

    D     G       D   D    D   G            D
e|--222---3-333---2x--2x---222-3x-----------2x-|
B|--333---0-000---3x--3x---333-0x-----------3x-|
G|--222---0-000---2x--2x---222-0x-----------2x-| repeated throughout
D|--------0-000----------------0x--------------|
A|--------2-222----------------2x--------------|
E|--------3-333----------------3x--------------|
 

Interlude

e---5h83h61h40h2---|
B---------------------|
G---------------------|
D---------------------|
A---------------------|
E---------------------|
                    waking up the global warming way...

| h  hammer-on
|( ) harmonic
| x  mute

Official Website: http://en.wikipedia.org/​wiki/​Big_​Audio_​Dynamite/