Guitaretab - guitar tabs
Song name
# A B C D E F G H I J K L M N O P Q R S T U V W X Y Z

Big Bad Voodoo Daddy - When It Comes To Love tab

When It Comes To Love by Big Bad Voodoo Daddy

First submitted tab!




e|---------------------------------------------------------------------------|
B|12-14-12--------------------10--10-----------------------------------------|
G|---------11------------9-11------------------------------9--9-7--9---------|
D|------------14-12-10-11----------------------/9-7--7---7-----------/11--7--|
A|-------------------------------------------7------------------------------9|
E|-------------------------------------9-10----------------------------------|

e|---------------------------------------------------------------------------|
B|---------------------------------------------------------------------------|
G|--------------------------9--7--7---7-9b-9-7-9-7---------9-11---------9-11-|
D|------------------------7-------------------------10-11--------11-12-------|
A|--7-10--7-10-9-9-7-8-9-----------------------------------------------------|
E|---------------------------------------------------------------------------|

e|---------------------------------------------------------------12--8-9-----|
B|--------------------------------------------------------10--10---------10--|
G|----6------------6-7--9-11--11-7--------9---------9-11---------------------|
D|-7----6-5---8-9------------------9--7-6----10-11---------------------------|
A|---------------------------------------------------------------------------|
E|---------------------------------------------------------------------------|
[ Tab from: http://www.guitaretab.com/b/big-bad-voodoo-daddy/72530.html ]
e|---------------------------------------------------------------------------|
B|--13--12--10-12-10-----------------10--10----------------------------------|
G|9------------------11---------9-11------------------------------9--9-7--9--|
D|-----------------------10-11------------------------/9-7--7---7------------|
A|--------------------------------------------------7------------------------|
E|--------------------------------------------9-10---------------------------|

e|---------------------------------------------------------------------------|
B|---------------------------------------------------------------------------|
G|-----------------------------------9--7--7---7-9b-9-7-9-7---------9-11-----|
D|/11--7---------------------------7-------------------------10-11--------11-|
A|-------9--7-10--7-10-9-9--7-8-9--------------------------------------------|
E|---------------------------------------------------------------------------|

e|---------------------------------------------------------------------------|
B|-----------------------------------------------------------------10--------|
G|----9-11-----------6------6-7--9-11--11-7--------9---------9-11------------|
D|12--------7----6-5---8-9------------------9--7-6----10-11------------------|
A|---------------------------------------------------------------------------|
E|---------------------------------------------------------------------------|


| /  slide up
| \  slide down
| h  hammer-on
| p  pull-off
| ~  vibrato
| +  harmonic
| x  Mute note