Song name
# A B C D E F G H I J K L M N O P Q R S T U V W X Y Z

Big Bang - Haru Haru tab

Hello, Big Bang fans. I will post the intro of Haru Haru the way I play it, and the way 
learnt it off of YouTube :P

I will post the complete version of the song as soon as I can.

This is Haru haru by Big Bang. Enjoy.

Intro:
e|---------3--2------------------------3--2---------------------------2------|
B|-----------------3--------------------------3--------------------3------3--|
G|----4---------------4------------4-------------2------------2--------------|
D|---------------------------------------------------------------------------|
A|---------------------------------------------------------------------------|
E|---------------------------------------------------------------------------|

e|------------------------------------------------3---2---------------------------3--2--3---3/5--|
B|----------------3----------3-------3------------------3-------0---------0----------------------|
G|------------0-----------0--------0------------------------------------0------------------------|
D|--------4------------4--------4------------------------------------2----------------------0----|
A|----------------------------------------------------------------3------------------------------|
E|----0------------------------------------------------------------------------------------------|

e|--3--2--3---------------------------------|
B|----------------------------3----------3--|
G|-----------------------0-----------0------|
D|-------------------4------------4---------|
A|------------------------------------------|
E|-------------0----------------------------|
Tap to rate this tab
# A B C D E F G H I J K L M N O P Q R S T U V W X Y Z