Song name
# A B C D E F G H I J K L M N O P Q R S T U V W X Y Z

Big Black - Big Money tab

big black
big money
atomizer

standard tuning

first part
    B                              C# D
E ---------------------------------------------|
B ---------------------------------------------|
G --4--4----4--4--4--4----4--4--4--6--7--------|
D --4--4----4--4--4--4----4--4--4--6--7--------|
A --2--2----2--2--2--2----2--2--2--4--5--------|
E ---------------------------------------------|

second part
    B                              D  C#
E ---------------------------------------------|
B ---------------------------------------------|
G --4--4----4--4--4--4----4--4--4--7--6--------|
D --4--4----4--4--4--4----4--4--4--7--6--------|
A --2--2----2--2--2--2----2--2--2--5--4--------|
E ---------------------------------------------|

simple as heck
Tap to rate this tab
 
# A B C D E F G H I J K L M N O P Q R S T U V W X Y Z