Song name
# A B C D E F G H I J K L M N O P Q R S T U V W X Y Z

Big Black - Jordan Minnesota tab

big black
jordan minnesota
atomizer

look up the history of Jordan, Minnesota and learn about all the child sex rings to 
about what this song is about

standard tuning

intro/main riff
E-------------------------------------------|
B-------------------------------------------|
G---2-2-2-4-4-4-5-5-4-4-4-5-5-4-2-2-2-4-4-5-|
D---2-2-2-4-4-4-5-5-4-4-4-5-5-4-2-2-2-4-4-5-|
A---0-0-0-2-2-2-3-3-2-2-2-3-3-2-0-0-0-2-2-3-|
E-------------------------------------------|

there is a variation of the main riff played during the verses that is simple to get 
you have the riff above down

chorus
E-------------------------------|
B-------------------------------|
G---7-7-7-7-7-7-6-7-7-7-7-7-7-8-|
D---7-7-7-7-7-7-6-7-7-7-7-7-7-8-|
A---5-5-5-5-5-5-4-5-5-5-5-5-5-6-|
E-------------------------------|
this will stay with you until you die...

PRETTY SIMPLE
Tap to rate this tab
# A B C D E F G H I J K L M N O P Q R S T U V W X Y Z