Song name
# A B C D E F G H I J K L M N O P Q R S T U V W X Y Z

Big Black - Texas tab

"Texas" by Big Black
from Bulldozer EP
Tabbed by Mr. Cancelled (dopasaurusrex@gmail.com)


Standard Tuning (e,B,G,D,A,E)


The thing about this song is that both guitars are playing the same thing,
but in different octaves at different times, which makes this very confusing 

to tab out. I'll try my best to make it simple. I'm going to tab out Steve's
guitar first, then Santiago's.

Intro (Steve, left channel)
e------------------------------------|
b------------------------------------|
g------------------------------------|
d------------------------------------|
a------------------------------------|
e-0-3-0-3-0-3-0--0-3-----------------|x6

e------------------------------------|
b------------------------------------|
g------------------------------------|
d-2-5-2-5-2-5-2--2-5-----------------|
a------------------------------------|
e------------------------------------|x4

e-0-3-0-3-0-3-0--0-3-----------------|
b------------------------------------|
g------------------------------------|
d------------------------------------|
a------------------------------------|
e------------------------------------|x4

e-12-15-12-15-12-15-12--12-15--------|
b------------------------------------|
g------------------------------------|
d------------------------------------|
a------------------------------------|
e------------------------------------|x2

Intro (Santiago, right channel)
e------------------------------------|
b------------------------------------|
g------------------------------------|
d------------------------------------|
a------------------------------------|
e-0-3-0-3-0-3-0--0-3-----------------|x4

e------------------------------------|
b------------------------------------|
g------------------------------------|
d-2-5-2-5-2-5-2--2-5-----------------|
a------------------------------------|
e------------------------------------|x4

e-0-3-0-3-0-3-0--0-3-----------------|
b------------------------------------|
g------------------------------------|
d------------------------------------|
a------------------------------------|
e------------------------------------|x4

e-12-15-12-15-12-15-12--12-15--------|
b------------------------------------|
g------------------------------------|
d------------------------------------|
a------------------------------------|
e------------------------------------|x4

After that, both guitars play this at the same time:
e-0-15-0-15-0-15-0--0-15-------------|
b------------------------------------|
g------------------------------------|
d------------------------------------|
a------------------------------------|
e------------------------------------|x4

e------------------------------------|
b------------------------------------|
g------------------------------------|
d-2---2---2---2---2------------------|
a-2---2---2---2---2------------------|
e-0---0---0---0---0------------------|


During the verse, Steve messes around with an open E, then plays nothing when
he starts singing.

Verse (Santiago):
e------------------------------------|
b------------------------------------|
g------------------------------------|
d------------------------------------|
a------------------------------------|
e-0--0-0-0-0-0-0-0--0-0--0-0---------|
  .  . . . . . . .  . .  . .

Post-Verse (Both guitars)
e------------------------------------|
b------------------------------------|
g------------------------------------|
d------------------------------------|
a------------------------------------|
e-0-3-0-3-0-3-0--0-3-----------------|x4

e------------------------------------|
b------------------------------------|
g------------------------------------|
d------------------------------------|
a------------------------------------|
e-2-5-2-5-2-5-2--2-5-----------------|x4

e------------------------------------|
b------------------------------------|
g------------------------------------|
d------------------------------------|
a------------------------------------|
e-3-6-3-6-3-6-3--3-6-----------------|x4

e------------------------------------|
b------------------------------------|
g------------------------------------|
d-2---2---2---2---2------------------|
a-2---2---2---2---2------------------|
e-0---0---0---0---0------------------|

Outro
e------------------------------------|
b------------------------------------|
g------------------------------------|
d------------------------------------|
a------------------------------------|
e-0-3-0-3-0-3-0--0-3-----------------|x4

e------------------------------------|
b------------------------------------|
g------------------------------------|
d-2----------------------------------|
a-2----------------------------------|
e-0----------------------------------|


Song structure:
Intro
Verse
Post-Verse
Verse
Intro
Break (play nothing)
Outro

Enjoy.
Tap to rate this tab
# A B C D E F G H I J K L M N O P Q R S T U V W X Y Z