Song name
# A B C D E F G H I J K L M N O P Q R S T U V W X Y Z

Big Black - Kitty Empire tab

"Kitty Empire" by Big Black
from Songs About Fucking
Tabbed by Mr. Cancelled (dopasaurusrex@gmail.com)


Drop D Tuning (e,B,G,D,A,D)

Intro
e----8-------------------------8-----|
b------------------------------------|
g-7--------------------------------7-|
d------------------------------------|
a------------------------------------|
d------------------------------------|x2

Break
e------------------------------------|
b------------------------------------|
g------------------------------------|
d------------------------------------|
a------------------------------------|
d-1--1-1--1-1-1-7--7-7--7-7h8--------|

Verse
e------------------------------------|
b------------------------------------|
g------------------------------------|
d-0----3--0---0-3--0-3-2-------------|
a-0----3--0---0-3--0-3-2-------------|
d-0----3--0---0-3--0-3-2-------------|
Tap to rate this tab
# A B C D E F G H I J K L M N O P Q R S T U V W X Y Z