Song name
# A B C D E F G H I J K L M N O P Q R S T U V W X Y Z

Big Black - Fists Of Love tab

"Fists of Love" by Big Black
from Atomizer & The Rich Man's Eight Track Tape
Tabbed by Mr. Cancelled (dopasaurusrex@gmail.com)


Standard Tuning (e,B,G,D,A,E)

Open with:
e------------------------------------|
b------------------------------------|
g-5----------------------------------|
d-5----------------------------------|
a-3----------------------------------|
e------------------------------------|

Main riff
e------------------------------------|
b------------------------------------|
g------------------------------------|
d------------------------------------|
a-3--3-3-6-3--3--3-3-3-6-3-6-3-------|
e------------------------------------|x2

e------------------------------------|
b------------------------------------|
g------------------------------------|
d------------------------------------|
a-6--6-6-9-6--6--6-6-6-9-6-9-6-------|
e------------------------------------|x2

e------------------------------------|
b------------------------------------|
g------------------------------------|
d------------------------------------|
a-5--5-5-8-5--5--5-5-5-8-5-8-5-------|
e------------------------------------|

e------------------------------------|
b------------------------------------|
g------------------------------------|
d-5--5-5-8-5--5--5-5-5-8-5-8-5-------|
a------------------------------------|
e------------------------------------|

Break (let it ring and mess around with notes)
e------------------------------------|
b------------------------------------|
g-7----------------------------------|
d-7----------------------------------|
a-5----------------------------------|
e------------------------------------|

And occasionally throw this in:
e------------------------------------|
b------------------------------------|
g------------------------------------|
d------------------------------------|
a------------------------------------|
e-3--3-3-6-3--3--3-3-3-6-3-6-3-------|

Enjoy.
Tap to rate this tab
# A B C D E F G H I J K L M N O P Q R S T U V W X Y Z