Song name
# A B C D E F G H I J K L M N O P Q R S T U V W X Y Z

Big Blood - Handsome Son Of No One tab

Big Blood - Handsome Son Of No One

tuning: standard



e|-----------5---------------------5-------|
B|-----------0---------------------0-3-----|
G|-----4-7-------------------4-7-----------|
D|-0-------7-------------0-------7---------|
A|-----------------------------------------|
E|-----------------------------------------|




e|---5---4---2---2----------5---4---2---2--|
B|---6---5---3---3----------6---5---3---3--|
G|---5---4---2---2----------5---4---2---2--|
D|---7---6---4---4----------7---6---4---4--|
A|-5---4---2---2----------5---4---2---2----|
E|-----------------------------------------|

http://www.lastfm.ru/music/Big+Blood
Tap to rate this tab
# A B C D E F G H I J K L M N O P Q R S T U V W X Y Z