Guitaretab - guitar tabs
Song name
# A B C D E F G H I J K L M N O P Q R S T U V W X Y Z

Big Country - Wonderland Live tab

Big Country - Wonderland (Live Version) 
By Capt. Henry
henners_1@yahoo.com

This version of the song can be seen on the DVD 'Without The Aid of a Safety Net' (1993).


Lead Intro (w/Delay and Chorus)

|-------------------------------------------------------------------|
|-------------------------------------------------------------------|
|-18--16--14------18--16--14------18--16--14------------------------|
|-------------16--------------16--------------16--16--14------14----|
|---------------------------------------------------------16--------|
|-------------------------------------------------------------------|


|-------------------------------------------------17-14---------------------|
|-------------------------------------------------------17-14---------------|
|-18--16--14------18--16--14------18--16--14------------------16-14---------|
|-------------16--------------16--------------16--------------------16-14---|
|---------------------------------------------------------------------------|
|---------------------------------------------------------------------------|


Main riff (Clean w/Reverb)
[ Tab from: http://www.guitaretab.com/b/big-country/187794.html ]
|-12-12-12-12-12-12--12-12-12--12-12-12-12-12-12---9--9--9----|
|-12-12-12-12-12-12--14-14-14--12-12-12-12-12-12---9--9--9----|
|-14-14-14-14-14-14--14-14-14--14-14-14-14-14-14--11-11-11----|
|-14-14-14-14-14-14--12-12-12--14-14-14-14-14-14--11-11-11----|
|-12-12-12-12-12-12--12-12-12--12-12-12-12-12-12---9--9--9----|
|-12-12-12-12-12-12------------12-12-12-12-12-12--------------|


Main Lead Riff

|----------------------------------------------------------------|
|----------------------------------------------------------------|
|----------------------------------------------------------------|
|---14---11---14-14-----9-9-11--------9-9-11-9---14---11---9-----|
|-0--0-0--0-0--0--0---0-7-7--7-12---0-7-7--7-7----0-0--0-0-7-----|
|------------------------------10--------------------------------|


|---------------------------------------------------------------|
|---------------------------------------------------------------|
|---------------------------------------------------------------|
|---14---11---14-14-----9-9-11--------9-9-11-9---14---11---7----|
|-0--0-0--0-0--0--0---0-7-7--7-12---0-7-7--7-7----0-0--0-0-0----|
|------------------------------10-------------------------------|


Interlude riff/Solo backing (w/delay) - played when Stu shouts "Bruuuucccceeeeeee".

|--------------------------------------------------------------------|
|--------------------------------------------------------------------|
|-----2-------2-------2-------2-------1-------1-------2-------2------|
|-4-4---4-4-4---4-2-2---2-2-2---2-2-2---2-2-2---2-0-0---0-0-0---0----|
|--------------------------------------------------------------------|
|--------------------------------------------------------------------|

Related for Wonderland Live tab
Advertisement will be closed in 10 seconds