Song name
# A B C D E F G H I J K L M N O P Q R S T U V W X Y Z

Big Country - Restless Natives tab

Big Country - Restless Natives Intro (Live)

By Capt. Henry
henners_1@yahoo.com

 
  Intro Riff 1
  Gtr II (Bruce) (Overdrive w/Delay)
  This line is played by Bruce at the beginning of the track whilst Stu sings.
  It then carries on in the background whilst Riff 2 is played. 

|-----------------3------------------|
|------------------------------------|
|------------------------------------|
|------------------------------------|   
|-5-5-5-5-3h5-5-5---5-5-5-3h5-5-5----|
|------------------------------------|


  Intro Riff 2
  Gtr I (Stuart)

|--------------------------------------------------------------------|
|-------------------------6--6-6-6-6-6-6-6--------------5-5-5-5-5-5--|
|-5h7-7-7-5h7-7-7-5h7-7-7-5--5h7-7-7-7-5-5--5-5-5-5-5-5-5-5-5-5-5-5--|
|-0-0-0-0-0-0-0-0-0-0-0-0-0--0-0-0-0-0-0-7--5-5-5-7-7-7-5-5-5-7-7-7--|
|--------------------------------------------------------------------|
|--------------------------------------------------------------------|


|------------------------|
|------------------------|
|-------------x-x-7-7----|
|-3-3-3-5-5-5-x-x-7-7----|
|-1-1-1-3-3-3-x-x-5-5----|
|------------------------|

  


The Chords that then follow in the Verse are:

D   D   C   G   G    F   D

Tap to rate this tab
 
# A B C D E F G H I J K L M N O P Q R S T U V W X Y Z